Oops, an error
Loading. Please wait.

When You Say Nothing At All Bass Tab

version 2
version 2

Whole song

3,308 views 6 this week
no commentswrite comment
1 2 3 4 5
please rate
add to favorites
launch autoscroll
font size
0
reset
guitar tuner
Tab Pro tools
  • play this tab
  • loop segment
  • change instrument
  • show fretboard
  • metronome
×
Best way to learn
"When You Say Nothing At All"
Autoscroll
slow
fast
+/-
esc
set tempo
stop
Contributor
Difficulty
intermediate
When You Say Nothing At All (RONAN KEATING)

STANDARD TUNING 100% accurate 
By TENGKU AHMAD SYARBALAH


INTRO

G|--------|--------|--------|--------|
D|--------|--------|--------|--------|
A|--REST--|--REST--|--REST--|--REST--|
E|--------|--------|--------|--------|
B|--------|--------|--------|--------|

VERSE I

G|--------|--------|--------|--------|
D|--------|--------|--------|--------|
A|--REST--|--REST--|--REST--|--REST--|
E|--------|--------|--------|--------|
B|--------|--------|--------|--------|

G|--------|--------|--------|--------|
D|--------|--------|--------|--------|
A|--REST--|--REST--|--REST--|--REST--|
E|--------|--------|--------|--------|
B|--------|--------|--------|--------|

PRE-CHORUS I
  1+2+3+4+ 1+2+3+4+ 1+2+3+4+ 1+2+ 1+2+3+4+ 1+2+3+4+
G|--------|--------|--------|----|--------|--------|
D|--------|--------|--------|----|--------|--------|
A|3-------|5-------|----5---|3---|5-------|--------|
E|--------|--------|3-------|----|--------|--------|
B|--------|--------|--------|----|--------|3-------|

CHORUS I
                                               1+2+3+4+ 1+2+3+4+ 1+2+3+4+
G|--------|--------|--------|--------|--------|--------|--------|--------|
D|--------|--------|--------|--------|--------|--------|--------|2---4---|
A|----5---|3---5---|----5---|3---5---|----5---|3---3--3|5---5---|--------|
E|3-------|--------|3-------|--------|3-------|--------|--------|--0-----|
B|--------|--------|--------|--------|--------|--------|--------|--------|

G|--------|--------|--------|--------|--------|--------|
D|--------|--------|--------|--------|--------|--------|
A|3---3---|5-------|----5---|3---5---|----5---|3---5---|
E|--------|--------|3-------|--------|3-------|--------|
B|--------|--------|--------|--------|--------|--------|


VERSE II

G|--------|--------|--------|--------|--------|--------|
D|--------|--------|--------|--------|2-------|--------|
A|----5---|3---5---|----5---|3---5---|----2---|3---5---|
E|3-------|--------|3-------|--------|--------|--------|
B|--------|--------|--------|--------|--------|--------|

G|--------|--------|--------|--------|
D|--------|--------|--------|--------|
A|----5---|3---5---|----5---|3---5--0|
E|3-------|--------|3-------|--------|
B|--------|--------|--------|--------|


PRE-CHORUS II
  1+2+3+4+ 1+2+3+4+ 1+2+3+4+ 1+2+ 1+2+3+4+ 
G|--------|--------|--------|----|--------|
D|--------|--------|5-------|----|--------|
A|3---3---|5---5---|----5---|3---|5---5---|
E|--------|--------|--------|----|--------|
B|--------|--------|--------|----|--------|


CHORUS II
                    1+2+3+4+                   1+2+3+4+ 1+2+3+4+ 1+2+3+4+
G|--------|--------|---7----|--------|--------|--------|--------|--------|
D|--------|--------|5---4--4|2--2----|--------|--------|--------|2---4---|
A|----5---|3---5---|--------|----5--5|----5---|3--33--3|5---5---|--------|
E|3-------|--------|--------|--------|3--3----|--------|--------|--0-----|
B|--------|--------|--------|--------|--------|--------|--------|--------|
                   
G|--------|--------|
D|--------|--------|
A|3---3---|5---5---|
E|--------|--------|
B|--------|--------|


SOLO(FLUTE)

G|--------|--------|--------|--------|
D|2-------|--------|--------|--------|
A|----2---|0---2---|----2---|0---2---|
E|--------|--------|0-------|--------|
B|--------|--------|--------|--------|

G|--------|--------|--------|--------|
D|--------|--------|--------|--------|
A|----2---|0---2---|0---0---|2---2-2-|
E|0-------|--------|--------|--------|
B|--------|--------|--------|--------|


CHORUS III
                    1+2+3+4+ 1+2+3+4+ 1+2+3+4+
G|--------|--------|--7---7-|--------|--------|--------|--------|--------|
D|--------|--------|5--54--4|2-------|--------|--------|--------|--------|
A|----5---|3---5---|--------|--------|--REST--|--REST--|--REST--|--REST--|
E|3-------|--------|--------|--------|--------|--------|--------|--------|
B|--------|--------|--------|--------|--------|--------|--------|--------|
                   
G|--------|--------|--------|--------|--------|--------|
D|--------|--------|--------|--------|--------|--------|
A|--REST--|--REST--|--REST--|--REST--|--REST--|--REST--|
E|--------|--------|--------|--------|--------|--------|
B|--------|--------|--------|--------|--------|--------|

OUTRO

G|--------|--------|
D|--------|--------|
A|----5---|3---5---|  (REPEAT THIS TILL NEXT WEEK HEHEHEHE)
E|3-------|--------|
B|--------|--------|

comments
We did not receive enough feedback on this tab! Please rate:
print report bad tab
1 2 3 4 5
I want to post or [tab]
guest
You may want to rate the tab now too:
select rating
Please do not post tabs as comments. Select "correction" instead!