Oops, an error
Loading. Please wait.

Amor Tan Bello tab

30 views 1 this week
no commentswrite comment
1 2 3 4 5
3 more votes to show rating
add to favorites
×
Save as Personal and add changes to this tab that will be seen only by you. Learn more ›
×
You can save this tab as Personal to edit and correct it or add notes. All changes will be seen only by you. Learn more »
launch autoscroll
font size
0
reset
how to read this tab
guitar tuner
edit
Autoscroll
slow
fast
+/-
esc
set tempo
stop
Bueno esta cancion esta facil, vi otro trabajo de esta cancion
en esta pagina, y no se vale engañar a la gente que ocupa este sitio
como apollo, esta vercion no lleva capo incluyo la tablatura que
se encuentra hasta a bajo comparen esta vercion y la otra y jusguenla
y califiquen, la dedico a Seve me hizo recordar esta rola en ella
en la epoca del Cbtis a saludos al 254 de palmar.

C      Em                                   F
TE AMO PUEDES DECIR AL MUNDO ENTERO QUE TE AMO
                 G7                   G
MI ORAZON MI ALMA VIDA ENTERA TE REGALO
C                                      Em
Y SI ACASO FUERAS A OTRA VIDA HASTA ALLA TE SEGUIRIA
           F                                    G7   G
POR QUE TAMBIEN EN OTRA VIDA, VIDA MIA YO TE AMARIA.

        C                          Em
Te acuerdas te tome entre mis bazos
                 F                   G7
Y colmándote de besos a tu oído musite

 C           Em                  D Maj/E Fº
Si quiero vivir amor eterno pues contigo
           D7º
Que felicidad.
F            G7           C
 Ven Abrázame quiero sentirme entre tus brazos
           Em                D Maj/E
Quiero sentir que con un beso
     Fº          D7º
la vida se me da.

F            G7       F                  G7
 Amor tan bello en tus brazos en tus besos,
        F                G7
Solamente es cuando existo,
          F              G7
Amor tan bello nuestro amor,
      F         G7        F        G7
Tu corazón lo vive mi corazón te ama.

  C                   Em               D Maj/E
Ven que te jure amor eterno que no sabe,
                Fº   D7º
De tiempo y lugar.
F             G7             C
Si soy tan feliz por que contigo nada pierdo
            Em              D Maj/E
Por que contigo todo encuentro
Fº            D7º
amor sin final.

F           G7       F                  G7
Amor tan bello en tus brazos en tus besos,
        F                G7
Solamente es cuando existo,
           F             G7
Amor tan bello nuestro amor,
     F          G7            F         G7
Celebrando en besos que yo sigo enamorado.

      C                         Em
Te acuerdas te tome entre mis bazos
                   F                 G7
Y colmándote de besos a tu oído musite,
                C   Em   F   G7  G
Amor tan bello.


Solo escribo estos tonos para que les de mas
originalidad a la cancion.

      C      D Maj/E      Fº      D7º
E ----3----|----0-----|---0----|----5---
A ----3----|----0-----|---0----|----5---
D ----5----|----0-----|---0----|----7---
G ----5----|----2-----|---2----|----5---
B ----5----|----6-----|---2----|----6---
E ----3----|----5-----|---5----|----5---

A continuación les mostrare la tablatura de la
introducción de la canción para esto necesitan ponerle a su
guitarra el capo en el 5º trasto o con un requinto normal.

            C                      Em                      F
A  -3---------------------|-----------------------|---------------
D  --2--------------------|-2---------------------|-3--------------
G  ----0------------------|---4-------------------|---2------------
C  -------0---------------|-----4-----------------|-----0----------
E  ----------0------------|-------3---------------|--------1-------
A  -----------2h--3--2--0-|---------2-3h--5--3--2-|----------0-0-2-3


        G7          G
A  -------------|-----------
D  -------------|-----------
G  ---0---------|-----------
C  -----2-------|---2-------
E  -------1-----|---3-------
A  ----------2--|---2-------

Como ven no esta difícil mmm ahora les paso la forma
de colocar los tonos en el requinto solo el D maj/E  Fº  D7º
    D Maj/E      Fº      D7º
A ----0----|-----0------|-----0----
D ----2----|-----2------|-----0----
G ----2----|-----2------|-----2----
C ----1----|-----0------|-----0----
E ----1----|-----1------|-----1----
A ----0----|-----0------|-----0----

            
            
Suggest correction
Creating personal tab
Creating personal tab
You can edit any tab online and save it as your Personal.

You can edit, replace or remove any tab part or add personal notes – all changes will be seen only by you.

Personal tabs can be accessed anytime from any device, even offline.
Learn more »
Give kudos to tab author, rate the tab!
1 2 3 4 5
comments
print report bad tab
guest
Wanna post a correction for this tab? Suggest correction