Oops, an error
Loading. Please wait.
71 views 1 this week
no commentswrite comment
1 2 3 4 5
3 more votes to show rating
add to favorites
×
Save as Personal and add changes to this tab that will be seen only by you. Learn more ›
×
You can save this tab as Personal to edit and correct it or add notes. All changes will be seen only by you. Learn more »
launch autoscroll
font size
0
reset
how to read this tab
guitar tuner
edit
Autoscroll
slow
fast
+/-
esc
set tempo
stop
HOLA A TODOS ANTES MANDO ESTA CANCIÓN AUNQUE YA ESTA MUCHO PERO NO ESTA EN LOS TONOS ADECUADOS 
(PARA MI) UNOS LOS TIENEN EN G Y OTROS EN D PERO SEGÚN YO AQUÍ ESTA MEJOR ARMONIZADO, 
CLARO SIN HACER MENOS A LOS DEMAS. 
ACLARO PARA LOS REQUINTOS SOY MUY MALO PERO AQUÍ ESTA ESTE.

INTRO.

F#               Bb7         Ebm            F#7            
e|---7-7-6---------7-7-6---------7-7-6---------7-7-6----
b|-2-7-7-7---------6-6-6---------7-7-7---------7-7-7----
g|---------6-5-6-7-------7-6-7-8-------8-7-8-9----------
D|------------------------------------------------------
A|------------------------------------------------------
E|-2----------------------------------------------------

       B                 F#            Eb7   G#m      C#7     F#   D
e|---------9-9-7-7-6---------11-11---9--9----7-7-6-6--------------
b|-------7-9-9-7-7-7--9-7-6--11-11--11-11------------9--7-6-7-----
g|-9-8-9-----------------------------------6----------------------

F#                   Bb7
como imaginar que la vida sigue igual
Ebm                      F#7            
como si tus pasos ya no cruzan el portal
B               F#       Eb7
como pretender, esta realidad
G#m                            Gm         C#7
como si hasta ayer brillaba el sol en tu mirar

F#                 Bb7
como consolar a la rosa y al jazmin
Ebm                      F#7            
como si tu risa ya no se oye en el jardin
B                        F#       Eb7
como he de mentirles que mañana volveras
G#m          C#7         F#  D
como despertar si tu no estas

F#               Bb7         Ebm            F#7            
e|---7-7-6---------7-7-6---------7-7-6---------7-7-6----
b|-2-7-7-7---------6-6-6---------7-7-7---------7-7-7----
g|---------6-5-6-7-------7-6-7-8-------8-7-8-9----------
D|------------------------------------------------------
A|------------------------------------------------------
E|-2----------------------------------------------------

       B                 F#            Eb7   G#m      C#7     F#   D
e|---------9-9-7-7-6---------11-11---9--9----7-7-6-6--------------
b|-------7-9-9-7-7-7--9-7-6--11-11--11-11------------9--7-6-7-----
g|-9-8-9-----------------------------------6----------------------

F#                 Bb7
como consolar a la rosa y al jazmin
Ebm                      F#7            
como si tu risa ya no se oye en el jardin
B                        F#       Eb7
como he de mentirles que mañana volveras
G#m          C#7              F#  Bb7  Ebm  F#7
como despertar si tu no estas

            E A D G B E
F#            2 4 4 3 2 2
Bb7            1 1 3 1 3 1
Ebm               X 1 1 3 4 2  ó  6 6 8 8 7 6
F#7            2 4 2 3 2 2
B            2 2 4 4 4 2
Eb7            X 1 1 3 2 3  ó  6 6 8 6 8 6
G#m            4 6 6 4 4 4
C#7            4 4 6 4 6 4
D            X 0 0 2 3 2
Gm              3 5 5 3 3 3

DUDAS Y/O COMENTARIOS POR FAVOR ESCRIBAN A alfa_omega22@
GRACIAS.
Suggest correction
Creating personal tab
Creating personal tab
You can edit any tab online and save it as your Personal.

You can edit, replace or remove any tab part or add personal notes – all changes will be seen only by you.

Personal tabs can be accessed anytime from any device, even offline.
Learn more »
Give kudos to tab author, rate the tab!
1 2 3 4 5
comments
print report bad tab
guest
Wanna post a correction for this tab? Suggest correction