Oops, an error
Loading. Please wait.

Linda Colegiala tab

33 views 1 this week
no commentswrite comment
1 2 3 4 5
3 more votes to show rating
add to favorites
×
Save as Personal and add changes to this tab that will be seen only by you. Learn more ›
×
You can save this tab as Personal to edit and correct it or add notes. All changes will be seen only by you. Learn more »
launch autoscroll
font size
0
reset
how to read this tab
guitar tuner
edit
Autoscroll
slow
fast
+/-
esc
set tempo
stop
Mi primera transcripción, espero que les guste, me falto
un RIFF pero con los que di ya podran tocarla.
INTRO:
(se toca tambien en la parte del solista)
   Dm                  G7
E ---------------------------------
A ---------------------------------
D ---------------------------------
G -----------------5--4--4--4--5---
B --6--5--6--5--6-----------------3
E ---------------------------------
    C              Am            Dm
E ---------------------------------
A ---------------------------------
D ---------------------------------
G -----------------5--4----4---7--9
B --5--4--5--4--5------------------
E ---------------------------------
                         E           Am   A7
E ------------------------------------------------
A ------------------------------------------------
D ------------------------------------------------
G ------------------------------------------------
B --6--5--6--5--6---------------------------------
E -----------------5--4--4--4--5--7--5-----5--4--5

           Am
Cuando te miro
 A7         Dm
bajas la mirada
         G7
Y te sonrojas
            C
linda colegiala
         Am
Y me enamora
             Dm
tu linda sonrisa
              E
Hechiza mi alma
            Am   A7
tu dulce mirada


                          Dm(INTRO)
Siempre estoy pensando en ti
         G7         C
y me enamoro de vivir
        Am           Dm
contigo me siento feliz amor
E                      Am  A7
con nuevas ganas de vivir


CORO
           Dm
linda colegiala
             LA,LA,LA,LA,LA,LA,LA
 G7          C
niña enamorada
            LA,LA,LA,LA,LA,LA,LA
  Am           Dm
que hechiza mi alma
                 LA,LA,LA,LA,LA,LA,LA
 E            Am    A7
tu dulce mirada
laaaaaaaaaaaaaaaa

            Dm
linda colegiala
             LA,LA,LA,LA,LA,LA,LA
  G7         C
niña enamorada
            LA,LA,LA,LA,LA,LA,LA
   Am           Dm
te llevo grabada

en mi corazooon

INTERMEDIO:
(Se toca en el poema)
Los acompañamientos son iguales al intro
E --------------------------------------------------------------------
A --------------------------------------------------------------------
D --------------------------------------------------------------------
G --------------------------------------------------------------------
B --5-----------------------------------------------------------------
E -----5--7--8--7--8--9-10---8--7--5--3--3--5--7-10--8--7-8-7--5-7-5--

E -------------------------------------------------------------
A -------------------------------------------------------------
D -------------------------------------------------------------
G -------------------------------------------------------------
B --5----------------------------------------------------------
E ----5-7-8-7-8-9-10---8--7--5--4--4--5--7--5--4--5-----5--4--5

Poema:
Siempre entervesida descubres el amor
y envuelve tu dulce mirada a mi corazon
dejando grabada tu imagen en mi alma
y al viento habremos de gritar nuestro amor

CORO
           Dm
linda colegiala
             LA,LA,LA,LA,LA,LA,LA
 G7          C
niña enamorada
            LA,LA,LA,LA,LA,LA,LA
  Am           Dm
que hechiza mi alma
                 LA,LA,LA,LA,LA,LA,LA
 E            Am    A7
tu dulce mirada
laaaaaaaaaaaaaaaa

            Dm
linda colegiala
             LA,LA,LA,LA,LA,LA,LA
  G7         C
niña enamorada
            LA,LA,LA,LA,LA,LA,LA
   Am           Dm
te llevo grabada

en mi corazooon

Outro:
                  Dm          G7
E ------------------------------------
A ------------------------------------
D ------------------------------------
G ------------------------------------
B --------6--5--5--6-----------3------
E --5--3--------------3--1--0-----1--0

   C         Am           E          Am  A7
E ------------------------------------------------
A ------------------------------------------------
D ------------------------------------------------
G ------------------------------------------------
B --------3--1--3--0-----0--0-----0--1-----1--3---
E --1--0-----------------------0-----------------0

FIN

            
            
Suggest correction
Creating personal tab
Creating personal tab
You can edit any tab online and save it as your Personal.

You can edit, replace or remove any tab part or add personal notes – all changes will be seen only by you.

Personal tabs can be accessed anytime from any device, even offline.
Learn more »
Give kudos to tab author, rate the tab!
1 2 3 4 5
comments
print report bad tab
guest
Wanna post a correction for this tab? Suggest correction