Oops, an error
Loading. Please wait.

Falling For You Tab

version 1
version 1

Whole song

2,137 views 1 this week
no commentswrite comment
1 2 3 4 5
please rate
add to favorites
launch autoscroll
font size
0
reset
how to read this tab
guitar tuner
Autoscroll
slow
fast
+/-
esc
set tempo
stop
Help us to improve Ultimate-Guitar.com Take our survey!
×
Author
Difficulty
novice
e----------------------|
B----------------------|
G------2---2---2---2---|
D-----2-2-2-2-2-2-2-2--| 2x
A----4---5---0---0-----|
E----------------------|


e--2-2-0-0-0-0-|
B--2-2-3-3-2-2-|
G--2-2-2-2-2-2-| Verse
D--2-2-0-0-2-2-|
A--4-4-0-0-0-0-|
E--x-x-x-x-x-x-|

e--x-0-0-|
B--3-5-3-|
G--4-6-2-|
D--4-7-0-|
A--2-4-0-|
E--x-x-x-


e--0-0-0-0-5-5-5-5-7-7-7-7-5-5-5-5-2-2-0-0-0-0-0-0-0-0-0-|
B--2-2-2-2-7-7-7-7-9-9-9-9-7-7-7-7-2-2-0-0-2-2-3-3-5-5-2-|
G--2-2-2-2-7-7-7-7-9-9-9-9-7-7-7-7-2-2-1-1-2-2-4-4-6-6-2-|  Chorus
D--2-2-2-2-7-7-7-7-9-9-9-9-7-7-7-7-4-4-2-2-2-2-4-4-7-7-2-|
A--0-0-0-0-5-5-5-5-7-7-7-7-7-7-7-7-4-4-2-2-0-0-2-2-4-4-0-|
E--x-x-x-x-x-x-x-x-x-x-x-x-x-x-x-x-2-2-0-0-x-x-x-x-x-x-x-|

e--0-0-0-0-0-0-0-0-0-0-0-0-0-0-0-|
B--3-3-3-3-5-5-5-5-3-3-3-3-3-3-3-|
G--4-4-4-4-6-6-6-6-2-2-2-2-2-2-2-|  Bridge
D--4-4-4-4-7-7-7-7-0-0-0-0-0-0-0-|
A--2-2-2-2-4-4-4-4-0-0-0-0-0-0-0-|
E--x-x-x-x-x-x-x-x-x-x-x-x-x-x-x-|
Suggest correction
Give kudos to tab author, rate the tab!
1 2 3 4 5
comments
print report bad tab
guest
You may want to rate the tab now too:
select rating
Wanna post a correction for this tab? Suggest correction