Oops, an error
Loading. Please wait.

My Only Friend Chords

3,119 views 1 this week
no commentswrite comment
1 2 3 4 5
please rate
add to favorites
launch autoscroll
font size
0
reset
transpose
0
reset
simplify chords
display chords
guitar tuner
Tab Pro tools
  • play this tab
  • loop segment
  • change instrument
  • show fretboard
  • metronome
×
Best way to learn
"My Only Friend"
Autoscroll
slow
fast
+/-
esc
set tempo
stop
Contributor
=========~~MY ONLY FRIEND~~=========
My first. Bear with me.

CHORDS USED:
_| D | A | Em | G | Bm | D5 | B5 | A5 | G5 |
e| 2 | 0 | 0  | 3 | 2  | x  | x  | x  | x  |
b| 3 | 2 | 0  | 3 | 3  | x  | x  | x  | x  |
g| 2 | 2 | 0  | 0 | 4  | x  | x  | x  | x  |
d| 0 | 2 | 2  | 0 | 4  | 12 | 9  | 7  | 5  |
a| x | 0 | 2  | 2 | 2  | 12 | 9  | 7  | 5  |
e| x | x | 0  | 3 | x  | 10 | 7  | 5  | 3  |

NOTE: For the chords A, Em, G, and Bm, you could bar them as such:
    G    A    Em    Bm
e|--3----5----7-----7---|
B|--3----5----8-----7---|
G|--4----6----9-----7---|
D|--5----7----9-----9---|
A|--5----7----7-----9---|
E|--3----5----7-----7---|


=====INTRO=====
e------------------------------------------------------|
B------------------------------------------------------|
G-------0-12----11----------0-12----11-----------------|
D-----0--------0------------0--------0-----------------|
A-12--------------------12-----------------------------|
E------------------------------------------------------|

e-----------------------------------------------------|
B-----------------------------------------------------|
G-------0-12----11----------0-12----11----------------|
D-----0--------0------------0--------0----------------|
A--9----------------------9---------------------------|
E-----------------------------------------------------|

e------------------------------------------------------|
B------------------------------------------------------|
G------------------------------------------------------|
D-------0-12----11----------0-12----11-----------------|
A-----0--------0------------0--------0-----------------|
E-12--------------------12-----------------------------|

e------------------------------------------------------|
B------------------------------------------------------|
G------------------------------------------------------|
D--------7----9---7------------------------------------|
A-----9------------------------------------------------|
E--7---------------------------------------------------|

e------------------------------------------------------|
B------------------------------------------------------|
G------------------------------------------------------|
D--------5----7---5------------------------------------|
A-----4------------------------------------------------|
E--5---------------------------------------------------|

e------------------------------------------------------|
B------------------------------------------------------|
G-----------0------------------------------------------|
D--------5------4---0----------------------------------|
A-----5------------------------------------------------|
E--3---------------------------------------------------|


[D5] There’s this guy I know
He’s not doing so well
[B5] And I don’t think he’d mind
If you called just to tell
Him you [A5] love him.
I think that [G5] would help him.

[D5] He’s been down for days
And I don’t know what to do
[B5] He’s been holding his pillow like it’s you
His state’s so [A5] depressing
His room smells like [G5] crying

[Em] And I know,
He loves you more than [Bm] breathing
More than [A] being happy.
[Em] I know,
He loves you like it’s [A] tearing him apart.


[D] There’s a guy outside your window
With a [A] cracked guitar
And a broken heart
But I don’t think you [Em] hear him, though
I don’t think you [G] hear him (A)
And he’s been [D] going where the wind blows
He’s taken [A] shelter by your house
But you’re not [Em] coming out
My [G] best friend [A] says “Believe”

[D] He walks by your house every night around 12
Sits a [Bm] block away- a safe distance
He dwells on [A] mixed feelings
He thinks about [G] dying.

[D] He talks to himself, but he’s talking to you
In his [Bm] head you can hear him like this
Through the [A] curtains and window
He bids you good [G] night now.

[Em] And I know,
He loves you more than [Bm] breathing
More than [A] being happy.
[Em] I know,
He loves you like it’s [A] tearing him apart.


[D] There’s a guy outside your window
With a [A] cracked guitar
And a broken heart
But I don’t think you [Em] hear him, though
I don’t think you [G] hear him (A)
And he’s been [D] going where the wind blows
He’s taken [A] shelter by your house
But you’re not [Em] coming out
My [G] best friend [A] says “Believe”

[A] Believe in everything that [Bm] you’ve got going on
[D] Just believe in Me!
[D] Just believe in Me!
[A] And “Need”, now there’s a word that [Bm] you can’t comprehend
[D] But know it lives with Me!
[D] Know it lives.

My only friend is a [D] guy outside your window
With a [A] cracked guitar
And a broken heart
But I don’t think you [Em] hear him, though
I don’t think you [G] hear him (A)
And he’s been [D] going where the wind blows
He’s taken [A] shelter by your house
But you’re not [Em] coming out
My [G] best friend [A] says “Believe”

=====OUTRO=====
[D] [A] [Em] [G] x1,000,000,000
comments
We did not receive enough feedback on this tab! Please rate:
print report bad tab
1 2 3 4 5
I want to post or [tab]
guest
You may want to rate the tab now too:
select rating
Please do not post tabs as comments. Select "correction" instead!