Oops, an error
Loading. Please wait.

Written At A Reststop Tab

version 1
version 1

Whole song

2,382 views 1 this week
5 commentsread comments
1 2 3 4 5
x 3
add to favorites
launch autoscroll
font size
0
reset
how to read this tab
guitar tuner
Autoscroll
slow
fast
+/-
esc
set tempo
stop
Help us to improve Ultimate-Guitar.com Take our survey!
×
Difficulty
advanced
Written At A Reststop


Capo on the Fourth Fret

S means Slide and P means Pull Off :)

e-----------------------7---5--------5---3---------|
b-----------------------0---7--------7---5---------|
g------0---------------0---------------------------|
d------0------------0------------0-----------------|
a---2------2S5--7------------5---------------------|
E-3------------------------------------------------|

e--------3-------------------------3-----------------------|
b--------3---0---------0----------3--0---------------------|
g--------0------2P02----2-------0------2P02----0-----------|
d----2--------------------------2-----------------0--------|
a--3--------------------------3----------------------------|
E----------------------------------------------------------|

e-----------------------7---5--------5---3---------|
b-----------------------0---7--------7---5---------|
g------0---------------0---------------------------|
d------0------------0------------0-----------------|
a---2------2S5--7------------5---------------------|
E-3------------------------------------------------|

e--------3----------------------------|
b--------3---0------------------------|
g--------0------2P02-------0----------|
d----2--------------------0-----------|
a--3----------------------------------|
E-------------------------------------|

Sing It Aloud: Csus
Sing It Aloud: D

Chorus:

Em, Csus, Gm, D X2
Csus, Em, G, D
Csus, D

That's about it!! Then you just repeat the chords. Thanks and let me know what you think :)
Suggest correction
Give kudos to tab author, rate the tab!
1 2 3 4 5
comments
print report bad tab
5 comments total. Showing first comments.
0 reply
Munkiefan 10 Jan 18, 2007 03:38 PM

great job on the into/verse! the chorus chords seem right but can you clarify when they're supposed to be played? maybe show the chords with the lyrics? great job though! we need more ronnie tabs!

0 reply
CodeRedAcoustic 21 Jan 26, 2007 10:30 PM

^ I second that =]

Good job. The intro/verse sounds perfect!

0 reply
skyebaby 10 Feb 02, 2007 10:47 AM

the structure is right but i think you missed alot of little stuff
i think it should go liek this..

e------3-----------------7-7p5--5------5-5p3--3---------|
b------3-----------------0------7------7------5---------|
g------0---------------0--------------------------------|
d------0------------0---------------0-------------------|
a---2-------2S5--7-----------------5--------------------|
E-3-------3---------------------------------------------|

e--------3-------------------------3-----------------------|
b--------3---0---------0----------3--0---------------------|
g--------0------2P02----2P0-----0------2P02----0-----------|
d----2--------------------------2-----------------0--------|
a--3--------------------------3----------------------------|
E----------------------------------------------------------|

but idk playing along to the song some parts dont sound rite..


guest
You may want to rate the tab now too:
select rating
Wanna post a correction for this tab? Suggest correction