Oops, an error
Loading. Please wait.

Ngiti chords

version 11
version 11

Whole song

2,402 views 1 this week
no commentswrite comment
1 2 3 4 5
3 more votes to show rating
add to favorites
×
Save as Personal and add changes to this tab that will be seen only by you. Learn more ›
×
You can save this tab as Personal to edit and correct it or add notes. All changes will be seen only by you. Learn more »
launch autoscroll
font size
0
reset
transpose
0
reset
display chords
guitar tuner
edit
Autoscroll
slow
fast
+/-
esc
set tempo
stop
Strumming
There is no strumming pattern for this song yet. and get +5 IQ
[Intro]

          G           D                      Am         C        D
e|--------9/11--------9/11------------------------------9--11-13-11-|
B|-9-11-9------9-11-9-----11/13---9-11----------9-11-13-------------|
G|-------------------------------------12-10-8----------------------|
D|------------------------------------------------------------------|
A|------------------------------------------------------------------|
E|------------------------------------------------------------------|


[Verse 1]
(capo 1)

       G
Minamasdan kita
        D
Nang hindi mo alam
Am                         G
 Pinapangarap kong ikaw ay akin
       G
Mapupulang labi
        D
At matinkad mong ngiti
Am                   C
 Umaabot hanggang sa langit
Am                     G
 Huwag ka lang titingin sa akin
          Fm                       D
At baka matunaw ang puso kong sabik


[Chorus]

            G              D
Sa iyong ngiti ako'y nahuhumaling
        Am
At sa tuwing ikaw ay gagalaw
          C
Ang mundo ko'y tumitigil
          G
Para lang sayo
                  D
Ang awit ng aking puso
       Am
Sana'y mapansin mo rin
    C               D
Ang lihim kong pagtingin


[Instrumental]
(no capo)

e|--------9/11--------9/11-----------------------------------------|
B|-9-11-9------9-11-9-----11/13-------8-9-8-11---------------------|
G|--------------------------------8-10----------10-8--------8------|
D|-----------------------------------------------------10-11-------|
A|-----------------------------------------------------------------|
E|-----------------------------------------------------------------|


[Verse 2]

      G              D
Minamahal kita ng di mo alam
Am                  G
 Huwag ka sanang magagalit
   G                     D
Tinamaan yata talaga ang aking puso
Am                     C
 Na dati akala ko'y manhid
Am                  G
 Hindi pa rin makalapit
         Fm                      D
Inuunahan ng kaba sa aking dibdib


[Chorus]

            G              D
Sa iyong ngiti ako'y nahuhumaling
         Am
At sa tuwing ikaw ay lalapit
          C
Ang mundo ko'y tumitigil
             G               D
Ang pangalan mo sinisigaw ng puso
   Am
Sana'y madama mo rin
    C                D
Ang lihim kong pagtingin

            G              D
Sa iyong ngiti ako'y nahuhumaling
(Sa iyong ngiti)

     Am
Sa tuwing ikaw ay gagalaw
          C
Ang mundo ko'y tumitigil
             G
Para lang sa'yo (Para lang sa'yo)
                     D
Ang awit ng aking puso
        Am          D
Sana ay mapansin mo rin... 
                     G
Ang lihim kong pagtingin
D               Am       C G
    Sa iyong ngiti...



************************************

| /  Slide up

************************************

            
            
Suggest correction
Creating personal tab
Creating personal tab
You can edit any tab online and save it as your Personal.

You can edit, replace or remove any tab part or add personal notes – all changes will be seen only by you.

Personal tabs can be accessed anytime from any device, even offline.
Learn more »
Give kudos to tab author, rate the tab!
1 2 3 4 5
comments
print report bad tab
guest
You may want to rate the tab now too:
select rating
Wanna post a correction for this tab? Suggest correction