Oops, an error
Loading. Please wait.

Land Of The Living Tab

1,123 views 12 this week
no commentswrite comment
1 2 3 4 5
excellent!
x 3
add to favorites
launch autoscroll
font size
0
reset
how to read this tab
guitar tuner
Tab Pro tools
  • play this tab
  • loop segment
  • change instrument
  • show fretboard
  • metronome
×
Best way to learn
"Land Of The Living"
Autoscroll
slow
fast
+/-
esc
set tempo
stop
Contributor
Capo
5th fret
-------------------------------------------------------------------------------
                             Land Of The Living - Roo Panes
-------------------------------------------------------------------------------
Tabbed by:
E-mail: Doctermatsmith@hotmail.com

Tuning: Standard|Capo 5th fret
               
                             
e|--------------------------0---------3----0---------------------------------|
B|----1-----1-----1----1h3-------1--------------3------1---------------------|  
G|-------0-----0----0---------0----0---0----0----0------0--------------------|
D|---------------------------------------------------------------------------|
A|----3-----3-----3----3----3----3----3----3----3------3---------------------|
E|---------------------------------------------------------------------------|

e|-------------------------0-------3---0-------------------------------------|
B|----1----1-----1----1h3------1-------------3----1--------------------------|
G|------0-----0----0---------0---0---0---0-----0-----0-----------------------|
D|---------------------------------------------------------------------------|
A|----0----0-----0----0----0---0---------------------------------------------|
E|---------------------------------1----1----1----1--------------------------|

comments
We did not receive enough feedback on this tab! Please rate:
print report bad tab
1 2 3 4 5
I want to post or [tab]
guest
You may want to rate the tab now too:
select rating
Please do not post tabs as comments. Select "correction" instead!