Oops, an error
Loading. Please wait.

Silver Moon Tab

559 views 33 this week
no commentswrite comment
1 2 3 4 5
x 3
add to favorites
launch autoscroll
font size
0
reset
how to read this tab
guitar tuner
Autoscroll
slow
fast
+/-
esc
set tempo
stop
Help us to improve Ultimate-Guitar.com Take our survey!
×
Author
Difficulty
advanced
About this tab version
Complete transcription of the studio version, including alternate arrangements. Was this info helpful? Yes No
Roo Panes - Silver Moon
=======================
  tabbed by BFG4

Tuning DADDAD

This song has a complicated form and a lot of parts but I have tried to make it as 
understandable as possible.
This is based on the studio version from the Land of The Living EP. He tends to play it 
differently live,
and not always in the same way. I may add an alternate arrangement of Break 1 later, the 
way he tends to
play it live.
It is worth noting, since it is used very often in this song, that 's' stands for legato slide.

The form is as follows:
Intro part 1&2
Verse 1
Intro part 2
Verse 2
Break 1
Intro part 2
Break 2
Outro


Intro:

Part 1:
|-7---11-----7-----5------9----------7---0---7----0---0---0---0-0---0---0---0---0-0---0---0---0---0-|
|-9---12---9---9s7---7s10---10s9---9---9---9-9---s5-----5---5--s9--s7-----7---5--s9--s5-----5---5---|
|-0-------------------------------------------------------------------------------------------------|
|---------------------------------------------------------------------------------------------------|
|---------------------------------------------------------------------------------------------------|
|--------------------------------------------9---s5------------s9--s7------------s9--s5-------------|

Part 2:
|----------------------------------------------0------7-----5---4-----7-----5---4---|
|----9-7-5-7---7s9---9-7-5-7---5-7-----9----------5-----9-----7---5-----9-----7---5-|
|------------0---0-----------0-------0---0---0---0--------0---------------0---------|
|-----------------------------------------------------------------------------------|
|-----------------------------------------------------------------------------------|
|--0---------------0--------------s9------s5--------0---------------0---------------|

|--------------0---------0-------0-------0--------0---||-------0----||
|------9----------5---------5-------5-------5---5-----||*-5--------*||
|----0---0---0---0----0---0---0---0---0---0----0---0--||----0---0---|| x4
|-----------------------------------------------------||------------||
|-----------------------------------------------------||*----------*||
|-s9------s5--------0---0---0---0---0---0---0h5--0----||--0---0-----||


Verse 1:
||-------0------0-------0-------0-------0-------0-------0-------0---||
||*-5-------5------5-------5-------9-------5--5----5-------5-------*||
||----0---0---0--0---0---0---0---0---0---0---0---0---0---0---0---0--|| x2
||------------------------------------------------------------------||
||*----------------------------------------------------------------*||
||--0---0---0--5---0---0---0---0---9---9---5---5---0---0---0---0----||

|------0-------0------0-------0-------0-------0-------0-------0-------0-------0---|
|-9-------5--5----5-------5-------5-------5-------5-------5-------5-------5-------|
|---0---0---0---0---0---0---0---0---0---0---0---0---0---0---0---0---0---0---0---0-|
|---------------------------------------------------------------------------------|
|---------------------------------------------------------------------------------|
|-9---9---5---5---0---0---0-------------------------------------------------------|


 |Intro Part 2|


Verse 2:
||-------0------0-------0-------0-------0-------0-------0-------0---||
||*-5-------5------5-------5-------9-------5--5----5-------5-------*||
||----0---0---0--0---0---0---0---0---0---0---0---0---0---0---0---0--|| x2
||------------------------------------------------------------------||
||*----------------------------------------------------------------*||
||--0---0---0--5---0---0---0---0---9---9---5---5---0---0---0---0----||

|------0-------0--||-------0-----||
|-9-------5--5----||*-5---------*||
|---0---0---0---0-||----0---0----|| x4
|-----------------||-------------||
|-----------------||*-----------*||
|-9---9---5---5---||--0---0---0--||


Break 1:
||-------0-------0-------0-------0-------0-------0-------0-------0----|
||*-4-------4-------5-------5-------7-------7-------9-------9---------|
||----0---0---0---0---0---0---0---0---0---0---0---0---0---0---0---0---|
||--------------------------------------------------------------------|
||*-------------------------------------------------------------------|
||--4---4---4---4---5---5---5---5---7---7---7---7---9---9---9---9-----|

  -------0-------0-------0-------0-------0-------0-------0-------0----||
  --4-------4-------5-------5-------7-------7-------7-------7--------*||
  ----0---0---0---0---0---0---0---0---0---0---0---0---0---0---0---0---|| x2
  --------------------------------------------------------------------||
  -------------------------------------------------------------------*||
  --4---4---4---4---5---5---5---5---7---7---7---7---7---7---7---7-----||


  |Intro Part 2|*


Break 2:**
||--5----4--7----||
||*-5----5--7---*||
||--0----0--0----|| x2
||--0----0--0----||
||*-0----0--0---*||
||--5----0--7----||

|-5-5-5-5-5-5-5-5-4-4-4-4-0---0-0-0-0 ----|
|-5-5-5-5-5-5-5-5-5-5-5-5-0h4-4-4-0-2-----|
|-0-0-0-0-0-0-0-0-0-0-0-0-0---0-0-0-0-----|
|-0-0-0-0-0-0-0-0-0-0-0-0-0---0-0-0-5-----|
|-0-0-0-0-0-0-0-0-0-0-0-0-0---0-0-0-0-----|
|-5-5-5-5-5-5-5-5-0-0-0-0-0---0-0-0-5-----|


Outro:
|----0-------0-------0-------0-------0----0----0----0----0----------0-------0------|
|-2------2s4-----4-------4-------4-----2h4--2h4--2h4--2h4-2p0---0-------0-------0--|
|------0---0---0---0---0---0---0---0--------------------------0---0---0---0---0----|
|-0--------------------------------------------------------------------------------|
|----------------------------------------------------------------------------------|
|--------------------------------------0----0----0----0-----0----------------------|

|------------------------------------------------------------0-------0----------------|
|-------0-------0-------0-------0-----0---------0--------0-------0-------0------------|
|---2-------2s4-----4-----4-4s5---5s7---7s9-9s7---7----7---7---7---7---7---7-7s9-7-5--|
|-0---0---0---0---0---0---0-0-----0-----0------------------------------------0--------|
|-------------------------------------------------------------------------------------|
|----------------------------------------------------0--------------------------------|

|----------0-----0-----0-------0-------0-------0-------0-------0-------0-------0----|
|------0-----0-----0-------0-------9-------5-------5-------5-------5-------9--------|
|--4-----4-----4-----4---4---4---0---0---0---0---0---0---0---0---0---0---0---0---0--|
|-----------------------------------------------------------------------------------|
|-----------------------------------------------------------------------------------|
|----------------------------------9-------5-------5-------5-------5-------9--------|

|-----0-------0-------0-------0-------0-------0-------0-------0------------------------|
|-7-------7-------7-------7-------9-------5-------5-------5-------5--------------------|
|---0---0---0---0---0---0---0---0---0---0---0---0---0---0---0---0---0-7---9---11---12--|
|-------------------------------------------------0-------0-------0-----0---0----0-----|
|--------------------------------------------------------------------------------------|
|-7-------7-------7-------7-------9-------5--------------------------------------------|

|-------------------------------------------------------------------11---11---11---11---11---11----|
|-------------------5---7---9---10---5---7---9---10---9---10---12---12---12---12---12---12---12----|
|-7---9---11---12---0---0---0---0----0---0---0---0----0---0----0----0----0----0----0----0----0-----|
|---0---0----0----0---0---0---0----0---0---0---0----0---0----0----0----0----0----0----0----0----0--|
|--------------------------------------------------------------------------------------------------|
|--------------------------------------------------------------------------------------------------|

|-4---4s5-7---7---7---7s5-4---0-------------------5-------5---------|
|-5---5s7-9---9---9---9s7-5---5---4s5-7---7---7---7---7---7---7-----|
|---0---0---0---0---0---0---0---0-2s4-5---5---5-------0-------0--0--| Repeat until end
|-----------------------------------0---0---0---0---0---0---0---0---|
|-------------------------------------------------------------------|
|-0---0---0---0---0---0---0---0---0---0---0---0---0---0---0---0-----|

LYRICS:

Verse 1:
 Down by the waters
 Where I once dreamed
 Beneath the silver moon, there you'll find me

 My heart a pilgrim, my mind a slave
 Oh My eyes can't stand to see the light of day
 'Cause life is lost without love wouldn't you say

Verse 2:
 I wish you'd follow, me to my peace
 Lend me your hands,
 I'll bring you from your knees

 My love is faithful, your love is true
 And I know the silver moon will shine for you
 Oh! I know the silver moon will shine for you

NOTES:

* At the end he plays slightly different
||-----0------||
||*-5----5---*||
||----0---0---|| x4
||------------||
||*----------*||
||--0---0-----||

** There are at least two guitars on the album version, the main guitar just strums the chords,
  while another guitar (which I suspect is in a different tuning or has a capo)
  plays a finger picking pattern. There are several ways of playing something similar on 
one guitar, however.
  Below are two different arrangements, one where the melody is played an octave lower 
than in the original
  song, and other one where it is played in the same register but you must stretch your 
fingers quite a lot:


Alternative 1:

|------------------------------------------------------------------|
|-2----2--0----0-----0-------0-------0-------0-------0-------0-----|
|----0-------0----4----4--2----2--4----4--2----2--0----0--0----0---|
|---5---5---5---5---5---5---5---5---0---0---0---0---0---0---0---0--|
|------------------------------------------------------------------|
|-5---5---5---5---5---5---5---5---0---0---0---0---0---0---0---0----|

|------------------------------------------------------------------|
|-2----2--0----0-----0-------0-------0-------0-------0-------0-----|
|----0-------0----4----4--2----2--4----4--2----2--5----5--4----4---|
|---5---5---5---5---5---5---5---5---0---0---0---0---0---0---0---0--|
|------------------------------------------------------------------|
|-5---5---5---5---5---5---5---5---0---0---0---0---0---0---0---0----|

|------------------------------------------------------0-------0-------|
|-2----2--0----0-----0-------0-------0-------0----0h4----4--4----0--2--|
|----0-------0----4----4--2----2--4----4--2----2------0---0---0---0----|
|---5---5---5---5---5---5---5---5---0---0---0---0----------------------|
|----------------------------------------------------------------------|
|-5---5---5---5---5---5---5---5---0---0---0---0---0-----0---0---0---5--|


Alternative 2:
|-9----9--7----7--4----4--2----2--4----4--2----2-----0-------0-----|
|----0-------0-------0-------0-------0-------0----5----5--5----5---|
|---0---0---0---0---0---0---0---0---0---0---0---0---0---0---0---0--|
|------------------------------------------------------------------|
|------------------------------------------------------------------|
|-5---5---5---5---5---5---5---5---0---0---0---0---0---0---0---0----|


 -9----9--7----7--4----4--2----2--4----4--2----2--5----5--4----4---|
 ----0-------0-------0-------0-------0-------0-------0-------0-----|
 ---0---0---0---0---0---0---0---0---0---0---0---0---0---0---0---0--|
 ------------------------------------------------------------------|
 ------------------------------------------------------------------|
 -5---5---5---5---5---5---5---5---0---0---0---0---0---0---0---0----|


|-9----9--7----7--4----4--2----2--4----4--2----2-------0-------0-------|
|----0-------0-------0-------0-------0-------0----0h4----4--4----0--2--|
|---0---0---0---0---0---0---0---0---0---0---0---0-----0---0---0---0----|
|----------------------------------------------------------------------|
|----------------------------------------------------------------------|
|-5---5---5---5---5---5---5---5---0---0---0---0---0-----0---0---0---5--|
Suggest correction
Give kudos to tab author, rate the tab!
1 2 3 4 5
comments
print report bad tab
guest
You may want to rate the tab now too:
select rating
Wanna post a correction for this tab? Suggest correction