Oops, an error
Loading. Please wait.

Tiger Striped Sky tab

version 3
version 3

Whole song

1,333 views 24 this week
no commentswrite comment
1 2 3 4 5
x 5
add to favorites
×
Save as Personal and add changes to this tab that will be seen only by you. Learn more ›
×
You can save this tab as Personal to edit and correct it or add notes. All changes will be seen only by you. Learn more »
launch autoscroll
font size
0
reset
how to read this tab
guitar tuner
edit
Autoscroll
slow
fast
+/-
esc
set tempo
stop
Roo Panes - Tiger Striped Sky
A rough take, but sounds very close to studio version. Enjoy!!

Tuning: DADGBe
No Capo

[Intro/Verse]

e|--------------------------------------------------------------------------------|
B|--------------------------------------------------------------------------------|
G|--------------------------------------------------------------------------------|
D|---------0---------0-------0--------------4-------2---------------------4-------|
A|-----5-------5/4-----4/2-----2p0------5-------5-------4---2---0-----5-------5---|
D|-0-0---0---0-----0-------0--------0-0---0---0---0---0---0---0---0-0---0---0-----|

e|---------------------------------------------------------------------------|
B|---------------------------------------------------------------------------|
G|---------------------------------------------------------------------------|
D|---2-----------------------------------------------------------------------|
A|-------4---2---0-----------------------------------------------------------|
D|-0---0---0---0---0-0-0-5-5-5-5/4-4-4-4/2-2-2-2-0---------------------------| Repeat


[Chords]
(listen to song for progression, mostly in Chorus)

e|---------------------|
B|---------------------|
G|-12----10---5--------|
D|-10----8----3--------|
A|-10----8----3--------|
D|-10----8----3--------|

Note: Sounds even better when guitar is tuned to Open D - DADGDd (in some cases, like 
adding your own solos or
new chords, etc., otherwise just leave in Drop D tuning)
 

************************************

| p  Pull-off
| /  Slide up

************************************

            
            
Suggest correction
Creating personal tab
Creating personal tab
You can edit any tab online and save it as your Personal.

You can edit, replace or remove any tab part or add personal notes – all changes will be seen only by you.

Personal tabs can be accessed anytime from any device, even offline.
Learn more »
comments
print report bad tab
guest
You may want to rate the tab now too:
select rating
Wanna post a correction for this tab? Suggest correction