Oops, an error
Loading. Please wait.

Liars And Battlelines tab

version 2
version 2

Whole song

Interactive

500 views 3 this week
1 commentread comment
1 2 3 4 5
3 more votes to show rating
add to favorites
×
Save as Personal and add changes to this tab that will be seen only by you. Learn more ›
×
You can save this tab as Personal to edit and correct it or add notes. All changes will be seen only by you. Learn more »
launch autoscroll
font size
0
reset
how to read this tab
guitar tuner
edit
Autoscroll
slow
fast
+/-
esc
set tempo
stop
Liars and Battlelines
By Rookie of the year
Tuning: DADGCC
03/28/2009
4mamu

It’s not Perfect, and I’m open for corrections!

Intro

D---10-----7------3------x------------------------|
A---0----- 0-----0-------3------------------------|
D---12---- 9-----5------ 2------------------------|
G----0-----0-----0-------0------------------------|
C----0----- 0-----0-------0-----------------------|
C----0------0-----0-------0-----------------------|   2x


Verse
D---10-----7------3------x----------------------|
A---0----- 0-----0-------3----------------------|
D---12---- 9-----5------ 2----------------------|
G----0-----0-----0-------0----------------------|
C----0----- 0-----0-------0---------------------|
C----0------0-----0-------0---------------------|2x


Refrain
D-----7--------5-------10--------3------------------|
A-----0--------0---------0--------0-----------------|
D-----9--------0--------12--------5-----------------|
G-----0--------0---------0---------0----------------|
C------0-------0---------0---------0----------------|
C------0-------0----------0--------0----------------|

D-----7--------5-------3--------5------------------|
A-----0--------0-------0--------0------------------|
D-----9--------0-------5---------0-----------------|
G-----0--------0--------0---------0----------------|
C------0-------0--------0---------0----------------|
C------0-------0--------0--------0-----------------|


Chorus

D---10-----7-----3------5-------------------------|
A---0----- 0-----0--------0-----------------------|
D---12---- 9-----5------ 0------------------------|
G----0-----0-----0-------0------------------------|
C----0----- 0-----0-------0-----------------------|
C----0------0-----0-------0-----------------------|  2x


D----3------5------7-------3------------------|
A---------------------------------------------|
D---------------------------------------------|
G----0------0-------0-------------------------|
C----0------0--------0------------------------|
C----0------0--------0------------------------|

            
            
Suggest correction
Creating personal tab
Creating personal tab
You can edit any tab online and save it as your Personal.

You can edit, replace or remove any tab part or add personal notes – all changes will be seen only by you.

Personal tabs can be accessed anytime from any device, even offline.
Learn more »
Give kudos to tab author, rate the tab!
1 2 3 4 5
comments
print report bad tab
1 comment total.
0 reply
j0eyxcore 305 Nov 27, 2010 12:43 PM

upside-down!!!!!!!

guest
You may want to rate the tab now too:
select rating
Wanna post a correction for this tab? Suggest correction