Oops, an error
Loading. Please wait.

Daisy Duke Tab

version 1
version 1

Whole song

747 views 1 this week
1 commentread comment
1 2 3 4 5
3 more votes to show rating
add to favorites
launch autoscroll
font size
0
reset
how to read this tab
guitar tuner
×
Best way to learn
"Daisy Duke"
Autoscroll
slow
fast
+/-
esc
set tempo
stop
Daisy Duke By Rooney     www.rooney-band.com this band is awesome check them out



E-------------------------2----------------|
A--------------2----------4-----------2----|    Verse1&2 (2 is just plammuted)
D-----2--------2---x8-----4-----------2—x8-|
G-----2—x8-----1----------2-----------1----| play once then play palm-muted 2
B-----2-------------------3--x8------------|
E-------------------------2----------------|


E-----2-------------------------------------|
A-----4—x6-------------2---------4----------|  play once (pre chorus?)
D----------------3-----4---x8----6—x5-------|
G----------------3—x6-----------------------|
B----------------3--------------------------|
E-------------------------------------------|


E----2--------------------------------------         play three times  
A----4—x2---2-------------------------------
D-----------4-x3---2------------------------
G------------------2-------2----------------
B------------------2-------2----------------
E------------------2—x3----2-x5-------------

(Chorus)
E----2-----------------------------------------  play once
A----4—x2------2--------------------------4----
D--------------4-x3----2------------------6—x1-
G----------------------2-------2---------------
B----------------------2-------2---------------
E----------------------2—x3----2-x5------------
Suggest correction
Give kudos to tab author, rate the tab!
1 2 3 4 5
comments
print report bad tab
1 comment total.
0 reply
thirdstripe 10 Jul 13, 2003 08:00 PM

i was just wondering if anyone knew the keyboard intro translated to the guitar?

guest
You may want to rate the tab now too:
select rating
Wanna post a correction for this tab? Suggest correction