Oops, an error
Loading. Please wait.

Im Shakin Bass

by Rooney
2,789 views 12 this week
2 commentsread comments
1 2 3 4 5
x 4
add to favorites
launch autoscroll
font size
0
reset
guitar tuner
×
Best way to learn
"Im Shakin"
Autoscroll
slow
fast
+/-
esc
set tempo
stop
Author
INTRO


G--8-----6----|
D-----6-------|  (let the notes ring)
A-------------|
E-------------|

G---------------------------------------------------------|
D---------------------------------------------------------|
A-----------44444444------------------44444444-66666666---|
E--66666666----------4444444444444444---------------------|


VERSE

G-------------------------------------------      -----------|
D-------------------------------------------  x4  -----------|
A--444xx444---------------666xx666666xx666--      --1-3-1-3--|
E--------------666xx666---------------------      -----------|
  "I've forg..."	   "to feel normal..."	  "Now I'm..."

CHORUS

G--------------------------------------------|
D--------------------------------------------|  x2
A--------------------4444444444444444-666----|
E--4444444444444444--------------------------|
   "Sha sha Shaking..."


G----------------------------------------------------------|
D----------------------------------------------------------|
A------------44444444--------------------------66666666----|
E--66666666----------4444444444444444-66666666-------------|
   ".....now...."
   <--These 3 are the intro chords-->

BRIDGE


G-----------------------------------------|
D-----------------------------------------|
A-------------------------------------44--|
E--4444444444444444-6666666666666666------|
  "I'm supposed..." "... better..."


G-------------------------------------------------------|
D-------------------------------------------------------|
A----------------------------33333333-44444444-33333333-|
E--4444444444444444-66666666----------------------------|
  "this nightmare's..."	  "...to end..."

-
G-------------------------------------------------------|
D-------------------------------------------------------|
A--11111111-33333333-4444444-33333333-44444444-66666666-|
E-------------------------------------------------------|
 "..holding on..."               "...holding on..."

End on


G-----
D-----
A-----
E--4--


SONG ORDER:

Intro
Verse
Chorus
Verse
Chorus (without intro chords)
Bridge
Chorus x3

Hey this might not be 100% perfect but there is no other base tabs on so i thought i 
submit this. It sounds alright when playing it. If you have problems please say so. or 
me at crushed_like_fruit@hotmail.co.uk
Suggest correction
comments
print report bad tab
2 comments total.
0 reply
papichullo88 10 Apr 05, 2015 07:29 PM

shouldn't the intro be:

G|--------6---------------|
D|8---------------6-------|
A|------------------------|
E|------------------------|
# 1+2+3+4+2+2+3+4+3+2+3+4+

0 reply
papichullo88 10 Apr 05, 2015 07:41 PM

I would also say at the transition between verse and chorus:

G|------------|
D|------------|
A|1-4-----1-3-|
E|------------|
# 1+2+3+4+1+2+
"Now I'm.Now I'm..."

guest
You may want to rate the tab now too:
select rating
Wanna post a correction for this tab? Suggest correction