Oops, an error
Loading. Please wait.

Iron Man Theme Tab

22,891 views 48 this week
2 commentsread comments
1 2 3 4 5
x 3
add to favorites
launch autoscroll
font size
0
reset
how to read this tab
guitar tuner
×
Best way to learn
"Iron Man Theme"
Autoscroll
slow
fast
+/-
esc
set tempo
stop
Author
Difficulty
  follow
intermediate
[Intro]
(Keyboard starts song with)
e|--------19-|
B|---12------|
G|-----------|
D|-----------|
A|-----------|
E|-----------|

(Guitar 1)  (x2)
e|-------------------------------------------------------------------|
B|-------------------------------------------------------------------|
G|-------------------------------------------------------------------|
D|--4-4-4-4-4-4-7-7-4-4-4-4-4-4-9-9-4-4-4-4-4-4-7-9-10-10101010-9-10-|
A|--4-4-4-4-4-4-7-7-4-4-4-4-4-4-9-9-4-4-4-4-4-4-7-9-10-10101010-9-10-|
E|--2-2-2-2-2-2-5-5-2-2-2-2-2-2-7-7-2-2-2-2-2-2-5-7-8--8-8-8-8--7-8--|
     PM|-------|       |-------|       |-------|      |--------|

(Keyboard)
e|--8-9----5--7-5--8-9-8-5---5-|-8-9----5--7-5-8--7-8-7-5-7-9----|
B|------7------------------7---|-----7---------------------------|
G|-----------------------------|---------------------------------|
D|-----------------------------|---------------------------------|
A|-----------------------------|---------------------------------|
E|-----------------------------|---------------------------------|

[Verse]
(Guitars 1 & 2)
e|----------------------------------------------|
B|----------------------------------------------|
G|----------------------------------------------|
D|--4-4-----4-4-----4-4---7-9-10-10101010-9-10--|
A|--4-4-----4-4-----4-4---7-9-10-10101010-9-10--|
E|--2-2-----2-2-----2-2---5-7-8--8-8-8-8--7-8---|
Drums  1 2 3   1 2 3   1 2    PM|--------|

[Chorus] 
(Not too sure about this one, but I did my best)
(Guitar 1)
e|--------------------------------------------------------|
B|--------------------------------------------------------|
G|--11-11-11-11-11-11-9-9-7-7-7-7-7-7-7-7-4-4-4-4-4-4-4-4-|
D|--11-11-11-11-11-11-9-9-7-7-7-7-7-7-7-7-4-4-4-4-4-4-4-4-|
A|--9--9--9--9--9--9--7-7-5-5-5-5-5-5-5-5-2-2-2-2-2-2-2-2-|
E|--------------------------------------------------------|

e|------------------------------------------|
B|------------------------------------------|
G|------------------------------------------|
D|--4-4-4-4-7-7-7-7----4-4---2-4-4---2-4-4--|
A|--4-4-4-4-7-7-7-7----4-4---2-4-4---2-4-4--|
E|--2-2-2-2-5-5-5-5----2-2---0-2-2---0-2-2--|
"He's Iron.. Man!"

e|-------------------|
B|-------------------|
G|-------------------|
D|--2-4-4---2-4-4----|
A|--2-4-4---2-4-4----|
E|--0-2-2---0-2-2----|
"Iron.. Man!"

(Guitar 2)
e|----------------------------------------------------------|
B|----------------------------------------------------------|
G|--11-11-xxxx-11-11-9-9-7-7-xxxx-7-7-xx-7-4-4-xxxx-4-4-x-4-|
D|--11-11-xxxx-11-11-9-9-7-7-xxxx-7-7-xx-7-4-4-xxxx-4-4-x-4-|
A|--9--9--xxxx-9--9--7-7-5-5-xxxx-5-5-xx-5-2-2-xxxx-2-2-x-2-|
E|----------------------------------------------------------|

e|-----------------------------------------|
B|-----------------------------------------|
G|-----------------------------------------|
D|--4-------7---------4-4---2-4-4---2-4-4--|
A|--4-------7---------4-4---2-4-4---2-4-4--|
E|--2-------5---------2-2---0-2-2---0-2-2--|

e|-------------------|
B|-------------------|
G|-------------------|
D|--2-4-4---2-4-4----|
A|--2-4-4---2-4-4----|
E|--0-2-2---0-2-2----|

(Keyboard) 
(It's pretty hard to work out, but it's along these lines)
e|------------------------------------------|
B|--14-----15----17---15-------14------12---|
G|------------------------------------------|
D|------------------------------------------|
A|------------------------------------------|
E|------------------------------------------|

[Intro]
e|--------19-|
B|---12------|
G|-----------|
D|-----------|
A|-----------|
E|-----------|

[Instrumental] (x2)
e|--------19-|
B|---12------|
G|-----------|
D|-----------|
A|-----------|
E|-----------|

[Chorus] (x2)
(Not too sure about this one, but I did my best)
(Guitar 1)
e|--------------------------------------------------------|
B|--------------------------------------------------------|
G|--11-11-11-11-11-11-9-9-7-7-7-7-7-7-7-7-4-4-4-4-4-4-4-4-|
D|--11-11-11-11-11-11-9-9-7-7-7-7-7-7-7-7-4-4-4-4-4-4-4-4-|
A|--9--9--9--9--9--9--7-7-5-5-5-5-5-5-5-5-2-2-2-2-2-2-2-2-|
E|--------------------------------------------------------|

e|------------------------------------------|
B|------------------------------------------|
G|------------------------------------------|
D|--4-4-4-4-7-7-7-7----4-4---2-4-4---2-4-4--|
A|--4-4-4-4-7-7-7-7----4-4---2-4-4---2-4-4--|
E|--2-2-2-2-5-5-5-5----2-2---0-2-2---0-2-2--|
"He's Iron.. Man!"

e|-------------------|
B|-------------------|
G|-------------------|
D|--2-4-4---2-4-4----|
A|--2-4-4---2-4-4----|
E|--0-2-2---0-2-2----|
"Iron.. Man!"

(Guitar 2)
e|----------------------------------------------------------|
B|----------------------------------------------------------|
G|--11-11-xxxx-11-11-9-9-7-7-xxxx-7-7-xx-7-4-4-xxxx-4-4-x-4-|
D|--11-11-xxxx-11-11-9-9-7-7-xxxx-7-7-xx-7-4-4-xxxx-4-4-x-4-|
A|--9--9--xxxx-9--9--7-7-5-5-xxxx-5-5-xx-5-2-2-xxxx-2-2-x-2-|
E|----------------------------------------------------------|

e|-----------------------------------------|
B|-----------------------------------------|
G|-----------------------------------------|
D|--4-------7---------4-4---2-4-4---2-4-4--|
A|--4-------7---------4-4---2-4-4---2-4-4--|
E|--2-------5---------2-2---0-2-2---0-2-2--|

e|-------------------|
B|-------------------|
G|-------------------|
D|--2-4-4---2-4-4----|
A|--2-4-4---2-4-4----|
E|--0-2-2---0-2-2----|

[Instrumental] (x2)
e|--------19-|
B|---12------|
G|-----------|
D|-----------|
A|-----------|
E|-----------|

[Solo]
e|-------------------------------------------------|
B|-------------------------------------------------|
G|--/13--(13)---9---9----4b6-4-----*4b5r4*---------|
D|-----------------------------*4*-----------------|
A|------------------------------------------2------|
E|--------------------------------------------2~~--|
Pinch harmonics between neck and middle pickups

e|----------------------------------------------------|
B|-----------------------------------14-----14141414--|
G|--/11---/13---/14---/16--/18--16b18--16b18====(18)--|
D|----------------------------------------------------|
A|----------------------------------------------------|
E|----------------------------------------------------|

e|---------------------------------------|
B|-------14-----1414-14------------------|
G|--16b18--16b18-------1616141416p14-----|
D|-----------------------------------16--|
A|---------------------------------------|
E|---------------------------------------|

(Spread out so you can understand it)
                        |------------------------------|
e|------------------------17--14-14-17-17-14-14-17-14-17-----|
B|--17b19--17-b19==19=19-------------------------------------|
G|-----------------------------------------------------------|
D|-----------------------------------------------------------|
A|-----------------------------------------------------------|
E|-----------------------------------------------------------|

[Outro]
(Guitars 1 & 2)
e|------------------------------------------|
B|------------------------------------------|
G|------------------------------------------|
D|--4-4-4-4-7-7-7-7----4-4---2-4-4---2-4-4--|
A|--4-4-4-4-7-7-7-7----4-4---2-4-4---2-4-4--|
E|--2-2-2-2-5-5-5-5----2-2---0-2-2---0-2-2--|
"He's Iron.. Man!"

e|-------------------|
B|-------------------|
G|-------------------|
D|--2-4-4---2-4-4----|
A|--2-4-4---2-4-4----|
E|--0-2-2---0-2-2----|
"Iron.. Man!"

e|------------------------------------------|
B|------------------------------------------|
G|------------------------------------------|
D|--4-4-4-4-7-7-7-7----4-4---2-4-4---2-4-4--|
A|--4-4-4-4-7-7-7-7----4-4---2-4-4---2-4-4--|
E|--2-2-2-2-5-5-5-5----2-2---0-2-2---0-2-2--|
"Iron.. Man!!!"

e|-------------------|
B|-------------------|
G|-------------------|
D|--2-4-4---2-4-4----|
A|--2-4-4---2-4-4----|
E|--0-2-2---0-2-2----|
"Iron.. Man!"

(Keyboard ends with)
e|--------19-|
B|---12------|
G|-----------|
D|-----------|
A|-----------|
E|-----------|


************************************

| x    Dead note
| (n)  Ghost note
| r    Release
| b    Bend
| /    Slide up
| *    Natural harmonic
| ~    Vibrato
| p    Pull-off

************************************
Suggest correction
Give kudos to tab author, rate the tab!
1 2 3 4 5
comments
print report bad tab
2 comments total.
0 reply
KryptonStudio 70 Jan 18, 2011 10:44 AM

Is perfect to 90%... maybe after first part of chorus there is another chord... I think chorus is something like:
e|-------------------------|--------------|
B|-------------------------|--------------|
G|--11-----9----7-----4----|-------/-x4-\-|
D|--11-x12-7-x4-7-x12-4-x4-|-7-----2-4-4--|
A|--9------7----5-----2----|-7-x16-2-4-4--|
E|-------------------------|-5-----0-2-2--|
With palm mute somewhere, it's difficult to describe... however, it's beautiful I love it! =)

0 reply
HerMaJe5tY 43 Jan 28, 2013 09:06 PM

i love this theme!

guest
You may want to rate the tab now too:
select rating
Wanna post a correction for this tab? Suggest correction