Oops, an error
Loading. Please wait.

Sleep Song bass

version 1
version 1

Whole song

Interactive

by Rooney
730 views 1 this week
no commentswrite comment
1 2 3 4 5
3 more votes to show rating
add to favorites
×
Save as Personal and add changes to this tab that will be seen only by you. Learn more ›
×
You can save this tab as Personal to edit and correct it or add notes. All changes will be seen only by you. Learn more »
launch autoscroll
font size
0
reset
guitar tuner
edit
Autoscroll
slow
fast
+/-
esc
set tempo
stop
Author
Difficulty
ok, ive listened to this song about a million times, and im 100% positive that this is
right tab for sleep song on bass. im pretty sure this song has regular tuning, not sure.
you think that this tab is a little bit off, tell me and i will take a look at were i 
wrong, please comment and rate, but most importantly ENJOY!!


              intro   (00:13 - 00:43 secs)
           sometimes i feel...
   G-----------------------------------------------------------------------|
   D-----------------------------------------------------------------------|
   A-----------------------------------------------------------------------|
   E-4-4-4-4-4-4-4-4-4-4-4-4-4-4-4-4\9-9-9-9-9-9-9-9-9-9-9-9/7-7-7-7-7-7-7-|

       i feel helpless....
   G-------------------------------------------------------------------------|
   D-------------------------------------------------------------------------|
   A-------------------------------------------------------------------------|
   E-7-4-4-4-4-4-4-4-4-4-4-4-4-4-4-4-4\9-9-9-9-9-9-9-9-9-9-9-9/7-7-7-7-7-7-7-|
             (drum fill)
          (00:46)   i like to dream, but it scares me to sleep
   G-------------------------------------------------------------------------|
   D-------------------------------------------------------------------------|
   A-------------------------------------------------------------------------|
   E-7-4-4-4-4-4-4-4-4-4-4-4-4-4-4-4-4\9-9-9-9-9-9-9-9-9-9-9-9/7-7-7-7-7-7-7-|
         (00:59)   that at some point....
   G-----------------------------------------------------------------------|
   D-----------------------------------------------------------------------|
   A-----------------------------------------------------------------------|
   E-4-4-4-4-4-4-4-4-4-4-4-4-4-4-4-4\9-9-9-9-9-9-9-9-9-9-9-9/4-4-4-4-4-4-4-|
         (1:14) the dream began....
           (chorus)
   G-------------------------------------------------------------------------|
   D-------------------------------------------------------------------------|
   A-------------------------------------------------------------------------|
   E-4/9-9-9-9-12-12-11-11/4-4-4-4-2-2-2\9-9-9-9-9-2-2-7-7-4-4-4-4-2-2-2-9-9-|
         (1:29) (chorus)
   G-------------------------------------------------------------------------|
   D-------------------------------------------------------------------------|
   A-------------------------------------------------------------------------|
   E-9-9-9/2-2-7-7-4-4-4-4-4-4-4-4-4-4-4-4-4-4-4-0-6-7-6-9-9-9-9-9-9-9-9-9-9-|
       (1:39)
               i just got out...
   G-----------------------------------------------------------------------|
   D-----------------------------------------------------------------------|
   A-----------------------------------------------------------------------|
   E-9-9-9-9-9-9-4-4-4-4-4-4-4-4-4-4-4-4-4-4-4-4/9-9-9-9-9-9-9-9-7-7-7-7-7-|
          (1:57) i was angry....

   G-----------------------------------------------------------------------|
   D-----------------------------------------------------------------------|
   A-----------------------------------------------------------------------|
   E-7-7-7-4-4-4-4-4-4-4-4-4-4-4-4-4-4-4-4/9-9-9-9-9-9-9-9-9-9-9-9-9-9-9-9-|
          (2:12)  hand on my chest....
   G-------------------------------------------------------------------------|
   D-------------------------------------------------------------------------|
   A-------------------------------------------------------------------------|
   E-7-7-7-7-7-7-7-7-7-7-7-7-7-7-7-7-4-4-4-4-4-4-4-4-4-4-4-4-4-4-4-4-9-9-9-9-|
         (2:25) concentrating on sleep...
   G-------------------------------------------------------------------------|
   D-------------------------------------------------------------------------|
   A-------------------------------------------------------------------------|
   E-9-9-9-9-7-7-7-7-7-7-7-7-4-4-4-4-4-4-4-4-4-4-4-4-4-4-4-4-9-9-9-9-9-9-9-9-|
         (2:40) eye lids shut....
   G-------------------------------------------------------------------------|
   D-------------------------------------------------------------------------|
   A-------------------------------------------------------------------------|
   E-9-9-9-9-9-9-9-9-9-9-7-7-7-7-7-7-7-7-4-4-4-4-9-9-9-9-12-12-11-11-4-4-4-4-|
          (2:51) whooooaah (chorus)
   G-----------------------------------------------------------------------|
   D-----------------------------------------------------------------------|
   A-----------------------------------------------------------------------|
   E-2-2-2/9-9-9-9-9-2-2-7-7-4-4-4-4-2-2-2/9-9-9-9-9-2-2-7-7-4-4-4-4-2-2-2-|
          (3:05) (chorus)
   G-------------------------------------------------------------------------|
   D-------------------------------------------------------------------------|
   A-------------------------------------------------------------------------|
   E-9-9-9-9-9-2-2-7-7-4-4-4-4-2-2-2/9-9-9-9-9-2-2-7-7-4-4-4-4-4-4-4-4-4-4-4-|
          (3:20) (chorus)
   G-------------------------------------------------------------------------|
   D-------------------------------------------------------------------------|
   A-------------------------------------------------------------------------|
   E-4-4-4-4-0-6-7-6-9-9-9-9-9-9-9-9-9-9-9-9-9-11-11-4-4-4-4-4-4-4-4-4-4-4-4-|
          (3:33) (chorus)
   G----------------------------------------------------------------------|
   D----------------------------------------------------------------------|
   A----------------------------------------------------------------------|
   E-4-4-4-4/9-9-9-9-9-9-9-9-9-9-9-9-9-9-9-9------------------------------| 
(drum fill)
         (3:42) look at me
   G-------------------------------------------------------------------------|
   D-------------------------------------------------------------------------|
   A-------------------------------------------------------------------------|
   E-4-4-4-4-2-2-2/9-9-9-9-9-2-2-7-7-4-4-4-4-2-2-2/9-9-9-9-9-2-2-7-7-4-4-4-4-|
     (3:57) look at me sleeping

   G----------------------------------------------------------------------|
   D----------------------------------------------------------------------|
   A----------------------------------------------------------------------|
   E2-2-2/9-9-9-9-9-2-2-7-7-4-4-4-4-2-2-2/9-9-9-9-9-2-2-7-4---------------|
Suggest correction
Creating personal tab
Creating personal tab
You can edit any tab online and save it as your Personal.

You can edit, replace or remove any tab part or add personal notes – all changes will be seen only by you.

Personal tabs can be accessed anytime from any device, even offline.
Learn more »
Give kudos to tab author, rate the tab!
1 2 3 4 5
comments
print report bad tab
guest
You may want to rate the tab now too:
select rating
Wanna post a correction for this tab? Suggest correction