Oops, an error
Loading. Please wait.

Sleep Song solo tab

version 1
version 1

Solo

Interactive

by Rooney
4,022 views 3 this week
5 commentsread comments
1 2 3 4 5
x 3
add to favorites
×
Save as Personal and add changes to this tab that will be seen only by you. Learn more ›
×
You can save this tab as Personal to edit and correct it or add notes. All changes will be seen only by you. Learn more »
launch autoscroll
font size
0
reset
how to read this tab
guitar tuner
edit
Autoscroll
slow
fast
+/-
esc
set tempo
stop
Difficulty
intermediate
Rooney - Sleep Song
Standard tuning (obviously)

e-----------------------|
b-----------------------|
g-----------------------|
d-----------------------|
a-10--8-6-5-6-5-8-5-----|
e---10---------8---6-3--|

e-----------------------|
b-----------------------|
g-----------------------|
d-----------------------|
a-10--8-6-5-6-5-8-5-----|
e---10---------8---6-3--|

e---------------------------------|
b---------------------------------|
g---------------------------------|
d-8-7-5--8-7-5--8-7-7-5--8-7-7-5--|
a--5-3----5-3--------8--------8---|
e---------------------------------|

Watch "The Chumbscrubber" its an amazing movie and this song is in it and fits perfectly.

            
            
Suggest correction
Creating personal tab
Creating personal tab
You can edit any tab online and save it as your Personal.

You can edit, replace or remove any tab part or add personal notes – all changes will be seen only by you.

Personal tabs can be accessed anytime from any device, even offline.
Learn more »
Give kudos to tab author, rate the tab!
1 2 3 4 5
comments
print report bad tab
5 comments total. Showing first comments.
0 reply
Myxamatosis 20 Apr 14, 2007 03:06 PM

hmmm not sure man, but its the best one out there so far

-1 reply
McLovin50 31 Mar 15, 2008 10:12 AM

this isn't bad, but you need to move EVERYTHING a fret up so its in sync with the album version, not the demo.

+2 reply
littlewinger 10 May 21, 2008 09:43 PM

e-----------------------|
b-----------------------|
g-----------------------|
d-----------------------|
a-10--8-6-5h6p5--8-5----|
e---10---------8----6-3-|

guest
Wanna post a correction for this tab? Suggest correction