Oops, an error
Loading. Please wait.

When Did Your Heart Go Missing intro tab

version 1
version 1

Whole song

by Rooney
12,961 views 1 this week
5 commentsread comments
1 2 3 4 5
x 7
add to favorites
×
Save as Personal and add changes to this tab that will be seen only by you. Learn more ›
×
You can save this tab as Personal to edit and correct it or add notes. All changes will be seen only by you. Learn more »
launch autoscroll
font size
0
reset
how to read this tab
guitar tuner
edit
Autoscroll
slow
fast
+/-
esc
set tempo
stop
Difficulty
Insanely easy to play, but such an awesome song.

Just have fun and play when it jumps to mind.


e-----------------------------------------------------|
b-----------------------------------------------------|
g-----------------------------------------------------|
d-----------------------------------------------------|
a--------5-----------5--------------------------------|
e------7---7-7-5-7-7---7-5----------------------------|

            
            
Suggest correction
Creating personal tab
Creating personal tab
You can edit any tab online and save it as your Personal.

You can edit, replace or remove any tab part or add personal notes – all changes will be seen only by you.

Personal tabs can be accessed anytime from any device, even offline.
Learn more »
comments
print report bad tab
5 comments total. Showing first comments.
0 reply
HurricaneSG 51 Dec 03, 2007 06:53 AM

correct notes but it is played one octave higher!

0 reply
daytondb 10 Feb 01, 2008 03:45 AM

sounds weird

0 reply
DropkickNeptune 10 May 09, 2013 04:55 PM

I think you have an extra note.
How about this?

e---------------------------------------------------|
b---------------------------------------------------|
g---------------------------------------------------|
d---------------------------------------------------|
a--------5---------5--------------------------------|
e------7---7-5-7-7---7-5----------------------------|

guest
Wanna post a correction for this tab? Suggest correction