Oops, an error
Loading. Please wait.

Wait Up Bass Tab

88 views 1 this week
no commentswrite comment
1 2 3 4 5
3 more votes to show rating
add to favorites
launch autoscroll
font size
0
reset
guitar tuner
Autoscroll
slow
fast
+/-
esc
set tempo
stop
Help us to improve Ultimate-Guitar.com Take our survey!
×
Author
Title: Wait Up
Artist: Roosevelt
Tempo = 112
Electric Bass played with pick


INTRO
    1 + 2 + 3 + 4 +   1 + 2 + 3 + 4 +   1 + 2 + 3 + 4 +   1 + 2 + 3 + 4 +
     h                   h
G |-----------------|-----------7-----|----3------------|---x5------7-----| repeat 2x
D |-35-5-x3-5-------|---35-5----------|-----------------|-----------------|
A |-----------------|--------x5---5---|-1----x0-1---3---|------x3-5---5---|
E |-------------3---|-----------------|-----------------|-----------------|


VERSE I
    1 + 2 + 3 + 4 +   1 + 2 + 3 + 4 +   1 + 2 + 3 + 4 +   1 + 2 + 3 + 4 +
     h                   h
G |-----------------|-----------7-----|----3------------|---x5------7-----| repeat 4x
D |-35-5-x3-5-------|---35-5----------|-----------------|-----------------|
A |-----------------|--------x5---5---|-1----x0-1---3---|------x3-5---5---|
E |-------------3---|-----------------|-----------------|-----------------|


CHORUS
    1 + 2 + 3 + 4 +   1 + 2 + 3 + 4 +   1 + 2 + 3 + 4 +   1 +  2 + 3 +   4 +

G |----7------------|---x5------5-----|-----------------|---x10------10-/12\--| repeat 4x
D |-----------------|-----------------|----5------------|---------------------|
A |-5----x5-5---3---|------x3-3---3---|-------------8---|-------x8-8----------|
E |-----------------|-----------------|-3----x3-3/------|---------------------|


INTERLUDE 
    1 + 2 + 3 + 4 +   1 + 2 + 3 + 4 +   1 + 2 + 3 + 4 +   1 + 2 + 3 + 4 +
     h                   h
G |-----------------|-----------7-----|----3------------|---x5------7-----| repeat 2x
D |-35-5-x3-5-------|---35-5----------|-----------------|-----------------|
A |-----------------|--------x5---5---|-1----x0-1---3---|------x3-5---5---|
E |-------------3---|-----------------|-----------------|-----------------|


VERSE II
    1 + 2 + 3 + 4 +   1 + 2 + 3 + 4 +   1 + 2 + 3 + 4 +   1 + 2 + 3 + 4 +
     h                   h
G |-----------------|-----------7-----|----3------------|---x5------7-----| repeat 4x
D |-35-5-x3-5-------|---35-5----------|-----------------|-----------------|
A |-----------------|--------x5---5---|-1----x0-1---3---|------x3-5---5---|
E |-------------3---|-----------------|-----------------|-----------------|


CHORUS
    1 + 2 + 3 + 4 +   1 + 2 + 3 + 4 +   1 + 2 + 3 + 4 +   1 +  2 + 3 +   4 +

G |----7------------|---x5------5-----|-----------------|---x10------10-/12\--| repeat 4x
D |-----------------|-----------------|----5------------|---------------------|
A |-5----x5-5---3---|------x3-3---3---|-------------8---|-------x8-8----------|
E |-----------------|-----------------|-3----x3-3/------|---------------------|


BRIDGE
    1 + 2 + 3 + 4 +   1 + 2 + 3 + 4 +   1 + 2 + 3 + 4 +   1 + 2 + 3 + 4 +

G |-----------------|-----------------|-----------------|-----------7------| repeat 4x
D |-----------------|-----------3---5-|-5--5-x3-5-------|------------------|
A |-3--3-x1-3-----12|-3-----1-3-------|---------------5-|----5-x3-5---5----|
E |-----------------|-----------------|-----------------|------------------|


CHORUS
    1 + 2 + 3 + 4 +   1 + 2 + 3 + 4 +   1 + 2 + 3 + 4 +   1 +  2 + 3 +   4 +

G |----7------------|---x5------5-----|-----------------|---x10------10-/12\--| repeat 4x
D |-----------------|-----------------|----5------------|---------------------|
A |-5----x5-5---3---|------x3-3---3---|-------------8---|-------x8-8----------|
E |-----------------|-----------------|-3----x3-3/------|---------------------|

Suggest correction
Give kudos to tab author, rate the tab!
1 2 3 4 5
comments
print report bad tab
guest
You may want to rate the tab now too:
select rating
Wanna post a correction for this tab? Suggest correction