Oops, an error
Loading. Please wait.

Deep And Meaningless Tab

6,025 views 3 this week
no commentswrite comment
1 2 3 4 5
please rate
add to favorites
launch autoscroll
font size
0
reset
how to read this tab
guitar tuner
Autoscroll
slow
fast
+/-
esc
set tempo
stop
Help us to improve Ultimate-Guitar.com Take our survey!
×
Contributor
Rooster
Deep And Meaningless
Tuning: Standard
Transcribed by vhhendrixcrazy

Rooster is an indie-rock band in the U.K. You can check their official site at www.roosterofficial.com

C                       G
I, I don't know why I miss you so much
     Am                      F
Yeah I, I don't know why I still feel your touch
C                          G
You, you left me feeling high and dry
        Am                       F
With nothing, nothing but the question why

      G                                Am   F
Yeah you, I guess you had another direction
            Dm                             E
And leaving me with nothing but a dead connection


Chorus:
                 C
If you call me today
                    G
I'll say that I'm fine
                   Am   
But I bet you can tell by the tone of my voice
             F
It's just a lie
                   C
You knew what you had
                   D                       F
You still walked away leaving me in this mess
             G                        C
My love for you is deep and meaningless

|----------------------------|
|-17=b18r--------------------|
|---------17-----------------|
|------------17--15s14-------|
|----------------------------|
|----------------------------|

C                             G
You, you knew what you were doing to me
    Am                F
And I, I guess I was too blind to see

|----15b17-15-14-13--11-13-13b15rp11----------|
|-13---------------------------------13~------|
|---------------------------------------------|
|---------------------------------------------|
|---------------------------------------------|
|---------------------------------------------|
          C
Well you hit where it hurt and you fooled me so bad
G                                        Am
But I'd do it again to relive what we had
F
Damn that's sad

|----------------------------|
|-15b17--15--13~\------------|
|----------------------------|
|----------------------------|
|----------------------------|
|----------------------------|

G                                    Am  F
There are many things left to remind me
      Dm                             E
Of a love that I just can't leave behind me

|--------15-------------------|
|-15b17-----15b17--15~~-------|
|-----------------------------|
|-----------------------------|
|-----------------------------|
|-----------------------------|

                 C
If you call me today
                    G
I'll say that I'm fine
                   Am   
But I bet you can tell by the tone of my voice
             F
It's just a lie

|-------13-14-15----------|
|-15b17-----------13~-----|
|-------------------------|
|-------------------------|
|-------------------------|
|-------------------------|
                   C
You knew what you had
                   D                       F
You still walked away leaving me in this mess
|----------------------------|
|-15b17--15--13~\------------|
|----------------------------|
|----------------------------|
|----------------------------|
|----------------------------|
             G                        C
My love for you is deep and meaningless

|----------------------|
|-13--11---------------|
|---------12--10~------|
|----------------------|
|----------------------|
|----------------------|

Guitar Solo: (2:15)

|-------------------------------------13------------------------------------13----|
|--------13----13-15-15b17--15pb17b17----15b17--15p13-15b17rb17--15pb17b17--------|
|-12h14-----14--------------------------------------------------------------------|
|---------------------------------------------------------------------------------|
|---------------------------------------------------------------------------------|
|---------------------------------------------------------------------------------|

|-----------------12-----------------------13-15----------------------15----------|
|-15b17--15-13-15----13~----15b16~-16b18~--------13~--15b17-15pb17b17----15pb17---|
|---------------------------------------------------------------------------------|
|---------------------------------------------------------------------------------|
|---------------------------------------------------------------------------------|
|---------------------------------------------------------------------------------|

|-------15b17-15-13-----------------13-----------------12-------------------------|
|-15p13-------------15b17-15pb17b17----15b17--15-13-15----13~\------13-11---------|
|-------------------------------------------------------------------------12-10---|
|---------------------------------------------------------------------------------|
|---------------------------------------------------------------------------------|
|---------------------------------------------------------------------------------|

|----------------------|
|----------------------|
|-8-10-10b12rp8--------|
|---------------10~----|
|----------------------|
|----------------------|

                 C
If you call me today
                   Bb
I'll say that I'm fine
                   Am   
But I bet you can tell by the tone of my voice
             F
It's just a lie
                   C
You knew what you had
                   D                       F
You still walked away leaving me in this mess
             G                        C
My love for you is deep and meaningless
|----------------------|
|-13--11---------------|
|---------12--10~------|
|----------------------|
|----------------------|
|----------------------|
Bb   Am
Yeah
             G#     Bb              C
My love for you is deep and meaningless

Chords:
C:   x32010
G:   320033
Am:  x02210
F:   133211
Dm:  xx0231
E:   022100
D:   xx0232
Bb:  x1333x
G#:  466544
comments
We did not receive enough feedback on this tab! Please rate:
print report bad tab
1 2 3 4 5
I want to post or [tab]
guest
You may want to rate the tab now too:
select rating
Please do not post tabs as comments. Select "correction" instead!