Oops, an error
Loading. Please wait.

Drag The Sunrise Down Bass Tab

304 views 1 this week
no commentswrite comment
1 2 3 4 5
3 more votes to show rating
add to favorites
launch autoscroll
font size
0
reset
guitar tuner
Autoscroll
slow
fast
+/-
esc
set tempo
stop
Help us to improve Ultimate-Guitar.com Take our survey!
×
Author
Tuning
Tabbers playing skills
D A D G B E
advanced ++
#----------------------------------PLEASE NOTE------------------------------#
# This is the author's own work and represents their interpretation of the  #
# song. You may only use this for private study, scholarship, or research.  #
#---------------------------------------------------------------------------#

-----------------------------------------------------------------------------
			Drag The Sunrise Down - Rooster
-----------------------------------------------------------------------------

Tabbed By : algemar
e-mail: cjhin at swbell.net

Played by: Ben Smyth
Tuning: Drop D



0:00	Intro
  e. se q   q   e
|-----------------|-----------------|-----------------|-----------------|
|-----------------|-----------------|-----------------|-----------------|
|-3--33-3---3---3-|-1--11-1---1---1-|-0--00-0---0---0-|-----------------|
|-----------------|-----------------|-----------------|-6--66-6---------|


0:15	Verse 1								x2
|-----------------|-----------------|-----------------|-----------------|
|-----------------|-----------------|-----------------|-----------------|
|-3--33-3---3---3-|-1--11-1---1---1-|-0--00-0---0---0-|-----------1-1-1-|
|-----------------|-----------------|-----------------|-6--66-6---------|


0:41	Pre-Chorus
|-----------------|-----------------|-----------------|-----------------|
|-/3--3---/3------|-----------------|-/3--3---/3------|-----------------|
|-----------------|-/3--3---/3------|-----------------|-0-0-----3-3-3---|
|-----------------|-----------------|-----------------|-----------------|


0:55	Chorus
  e. se e e. se e							x2
|-----------------|-----------------|-----------------|-----------------|
|-----------------|-0--00-0-0--00-0-|-1--11-1-1--11-1-|-3--33-3-3--33-3-|
|-3--33-3-3--33-3-|-----------------|-----------------|-----------------|
|-----------------|-----------------|-----------------|-----------------|


1:28	Verse 2								x2
|-----------------|-----------------|-----------------|-----------------|
|-----------------|-----------------|-----------------|-----------------|
|-3--33-3---3---3-|-1--11-1---1---1-|-0--00-0---0---0-|-----------1-1-1-|
|-----------------|-----------------|-----------------|-6--66-6---------|


1:54	Pre-Chorus
|-----------------|-----------------|-----------------|-----------------|
|-/3--3---/3------|-----------------|-/3--3---/3------|-----------------|
|-----------------|-/3--3---/3------|-----------------|-0-0-----3-3-3---|
|-----------------|-----------------|-----------------|-----------------|


2:08	Chorus								x2
|-----------------|-----------------|-----------------|-----------------|
|-----------------|-0--00-0-0--00-0-|-1--11-1-1--11-1-|-3--33-3-3--33-3-|
|-3--33-3-3--33-3-|-----------------|-----------------|-----------------|
|-----------------|-----------------|-----------------|-----------------|


2:35	Bridge
|-----------------|-----------------|-----------------|-----------------|
|-----------------|-----------------|-----------------|-----------------|
|-----------------|-----------------|-----------------|-----------------|
|-5---------------|-5---------------|-5---------------|-3---------------|

|-----------------|-----------------|-----------------|-----------------|
|-----------------|-----------------|-----------------|-----------------|
|-----------------|-----------------|-----------------|-0-0-------------|
|-2---------------|-1-----3-3-3-----|-5---------------|-----------------|

|-----------------|-----------------|
|-----------------|-----------------|
|-1-1-------------|-3-3-------------|
|-----------------|-----------------|


3:08 	Chorus								x4
|-----------------|-----------------|-----------------|-----------------|
|-----------------|-0--00-0-0--00-0-|-1--11-1-1--11-1-|-3--33-3-3--33-3-|
|-3--33-3-3--33-3-|-----------------|-----------------|-----------------|
|-----------------|-----------------|-----------------|-----------------|




| q Quarter note
| e 8th note
| s 16th note
|
|
| /  slide up
| \  slide down
| h  hammer-on
| p  pull-off
| ~  vibrato
| +  harmonic
| x  Mute note
=============================================================================
Suggest correction
Give kudos to tab author, rate the tab!
1 2 3 4 5
comments
print report bad tab
guest
You may want to rate the tab now too:
select rating
Wanna post a correction for this tab? Suggest correction