Oops, an error
Loading. Please wait.

Platinum Blind Tab

1,333 views 1 this week
no commentswrite comment
1 2 3 4 5
please rate
add to favorites
launch autoscroll
font size
0
reset
how to read this tab
guitar tuner
Autoscroll
slow
fast
+/-
esc
set tempo
stop
Help us to improve Ultimate-Guitar.com Take our survey!
×
Rooster
Platinum Blind
Tuning: Standard
Transcribed by Soch Hean

Intro Riff:
|--------------------------------------------------------------------|
|--------------------------------------------------------------------|
|--------------------------------------------------------------------|
|--------------------------------------------------------------------|
|----------------------------5-----5h7-----------------5-----5---7~--|
|-12\--0-0-5-0-4-0-0-0-4-0-0---0-0------0-0-5-0-4-0-0----0-0---0-----|

|----------------------------------------------------------------|
|----------------------------------------------------------------|
|----------------------------------------------------------------|
|----------------------------------------------------------------|
|------------------------5-----5h7-----------------5-----5---7~--|
|--0-0-5-0-4-0-0-0-4-0-0---0-0------0-0-5-0-4-0-0----0-0---0-----|

Verse: (0:19)
|-------------------------------------------------------------|
|-7b8==----------------------15---------------------15--------|
|-7b8==----------------------14b16=--14pb16rp12-14--14b16=----|
|---------------2---------------------------------------------|
|---------------2---------------------------------------------|
|--------3b3.5--0---------------------------------------------|

|-----------------|
|-----------------|
|----7b7.5--------|
|-9~--------9~----|
|-----------------|
|-----------------|

Bridge: (0:30)
|-------------------------------|
|-------------------------------|
|-6--6--6--6--7-----------------|
|-6--6--6--6--7-----------------|
|-4--4--4--4--5-7-7-7-7-7-7-7---|
|-------------------------------| (x3)
             PM|-------------|

|-------------------------------|
|-------------------------------|
|-6--6--6--6--7--7--9--9--------|
|-6--6--6--6--7--7--9--9--------|
|-4--4--4--4--5--5--7--7--------|
|-------------------------------|

Chorus:
|------------------------------------|
|------------------------------------|
|-----------------------5-5---7-7----|
|-2------5------7-------5-5---7-7----|
|-2-(x8)-5-(x8)-7-(x8)--3-3---5-5----|
|-0------3------5--------------------| (x2)

Guitar Riff:
|----------------------------------------------------------------|
|----------------------------------------------------------------|
|----------------------------------------------------------------|
|----------------------------------------------------------------|
|------------------------5-----5h7-----------------5-----5---7~--|
|--0-0-5-0-4-0-0-0-4-0-0---0-0------0-0-5-0-4-0-0----0-0---0-----|

Verse 2: (1:15)
|-7-----------------------------------------------------------|
|-7b9=-------------------------15---------------------15------|
|------------------------------14b16=--14pb16rp12-14--14b16=--|
|----------------2--------------------------------------------|
|----------------2--------------------------------------------|
|---------3b3.5--0--------------------------------------------|

|-12----------------|
|-15b17~~-----------|
|-------------------|
|-------------------|
|-------------------|
|-------------------|

Bridge: (1:27)
|-------------------------------|
|-------------------------------|
|-6--6--6--6--7-----------------|
|-6--6--6--6--7-----------------|
|-4--4--4--4--5-7-7-7-7-7-7-7---|
|-------------------------------| (x3)
             PM|-------------|

|-------------------------------|
|-------------------------------|
|-6--6--6--6--7--7--9--9--------|
|-6--6--6--6--7--7--9--9--------|
|-4--4--4--4--5--5--7--7--------|
|-------------------------------|

Chorus:
|------------------------------------|
|------------------------------------|
|-----------------------5-5---7-7----|
|-2------5------7-------5-5---7-7----|
|-2-(x8)-5-(x8)-7-(x8)--3-3---5-5----|
|-0------3------5--------------------| (x2)

Guitar Riff: (1:57)
|----------------------------------|
|----------------------------------|
|----------------------------------|
|-4=s6-8=s6-6s9-8-8--9~------------|
|----------------------------------|
|----------------------------------|

Interlude: (2:00)
F#m  B  F#m  B  F#m  B
G         B

Outro Chorus:
Chorus:
|------------------------------------|
|------------------------------------|
|-----------------------5-5---7-7----|
|-2------5------7-------5-5---7-7----|
|-2-(x8)-5-(x8)-7-(x8)--3-3---5-5----|
|-0------3------5--------------------| (Repeat 'til fade out)

Chords:
F#m:  244322
B:    799877
G:    355433

Legend:
p - pulloff
h - hammeron
pb - preben
b - bend
PM - palm mute
r - release
s - slide
Suggest correction
Give kudos to tab author, rate the tab!
1 2 3 4 5
comments
print report bad tab
guest
You may want to rate the tab now too:
select rating
Wanna post a correction for this tab? Suggest correction