Oops, an error
Loading. Please wait.

The Paradiddle Song Bass Tab

287 views 1 this week
no commentswrite comment
1 2 3 4 5
please rate
add to favorites
launch autoscroll
font size
0
reset
guitar tuner
Tab Pro tools
  • play this tab
  • loop segment
  • change instrument
  • show fretboard
  • metronome
Autoscroll
slow
fast
+/-
esc
set tempo
stop
Band: Rootjoose
Song: The Paradiddle Song
Tabbed By: Simon Poulton (Fungi@localbar.com)


Main Verse:
G:-----3-3--5--3-3-3-----------3--5--3-3----------------------------------------
D:-------------------5-------------------5--------------------------------------
A:--3-------------------3------------------3------------------------------------
E:------------------------------------------------------------------------------


Main Verse Variation/Interlude
G:------15-15--17-15-15-15--------------15--17--15-15---------------------------
D:-------------------------17-------------------------17------------------------
A:--15------------------------15-------------------------15---------------------
E:------------------------------------------------------------------------------


'Simply Red' Bit
G:--------------------5--3-3-------------------------5--3-3---------------------
D:------5--3-3--5-------------5-------5--3-3--5--------------5------------------
A:--3-3-----------3-3-------------3-3------------3-3----------------------------
E:------------------------------------------------------------------------------


"Get it onto vinyl......"
G:------------------------------------------------------------------------------
D:------------------------------------------------------------------------------
A:--3-3-3-3-3-3-3--6-6-6-6-6-6-6---------5-5-5-5--7-7-7-7-7-7-7--3-3-3-3-3-3-3--
E:------------------------------------------------------------------------------
Vary this to make more intersting (i hammer on using the open A note)


Instrumental Interlude
G:----10---10---10---10----12---12----12----------------------------------------
D:--8----8----8----8----10----10---10----10-10-10-10-10////Slide Down////-------
A:------------------------------------------------------------------------------
E:------------------------------------------------------------------------------


The rest is just a repeat of what is above

This is only my interpretation of the song, and also one of my first tabs.  If you 
can make any corrections, then please e-mail me, i want to play it as much as 
you do!
comments
We did not receive enough feedback on this tab! Please rate:
print report bad tab
1 2 3 4 5
I want to post or [tab]
guest
You may want to rate the tab now too:
select rating
Please do not post tabs as comments. Select "correction" instead!