Oops, an error
Loading. Please wait.

Victims Of A System Tab

1,958 views 15 this week
no commentswrite comment
1 2 3 4 5
excellent!
x 1
add to favorites
launch autoscroll
font size
0
reset
how to read this tab
guitar tuner
Tab Pro tools
  • play this tab
  • loop segment
  • change instrument
  • show fretboard
  • metronome
Autoscroll
slow
fast
+/-
esc
set tempo
stop
Contributor
Tabbed By: Trey Lewis
eMail: c h u c k n o r r i s @ h a w a i i a n t e l . n e t

This is a track from Rootz Undergound's album Movement. These guys come with a fresh new 
sound out of Kingston, Jamaica.

      INTRO: Played on Keyboard/Synth
e|-------------------|
B|-------------------|
G|-------------------|
D|-5-7-8----0-5-7-8--| X4
A|-------------------|
E|-------------------|

This is the tab for the big synth-sounding thing that ends the intro. It comes right 
"Don't become a victim..... of a Babylon system"
e|-------------------|
B|-------------------|
G|-------------------|
D|-5---3-------------|
A|---5---3-5---3-----|
E|-----------6---6-3-|

Chord Progression: This is the chord progression for the entire song. Its played over a 
beat. Remember that the Guitar/keyboard is played with reggae chops on the upbeats only.

   Gm      D#      Cm      Dm
e|-3---3---6---6---3---3---5---5-------------------------------------------|
B|-3---3---8---8---4---4---6---6-------------------------------------------|
G|-3---3---8---8---5---5---7---7-------------------------------------------|
D|-5---5---8---8---5---5---7---7-------------------------------------------|
A|-5---5---6---6---3---3---5---5-------------------------------------------|
E|-3---3-------------------------------------------------------------------|

The song will break out into this little section a couple of times. The first time it 
is right after the lyrics: "Why don't you sell out, sell out, sell out, sell out...." 
this part is played on Keyboard/Synth.

e|----3-3-3-3-3-|
B|----3-3-3-3-3-|
G|----3-3-3-3-3-|
D|----5-5-5-5-5-| X4
A|----5-5-5-5-5-|
E|-3--3-3-3-3-3-|

e|--------------------------------------|
B|--------------------------------------|
G|--------------------------------------|
D|-5-7-8----0-5-7-8----5-7-8----0-5-7-8-|
A|--------------------------------------|
E|--------------------------------------|

official website: http://www.rootzunderground.com/
comments
We did not receive enough feedback on this tab! Please rate:
print report bad tab
1 2 3 4 5
I want to post or [tab]
guest
You may want to rate the tab now too:
select rating
Please do not post tabs as comments. Select "correction" instead!