Oops, an error
Loading. Please wait.

A Mi Cama tab

36 views 1 this week
no commentswrite comment
1 2 3 4 5
3 more votes to show rating
add to favorites
×
Save as Personal and add changes to this tab that will be seen only by you. Learn more ›
×
You can save this tab as Personal to edit and correct it or add notes. All changes will be seen only by you. Learn more »
launch autoscroll
font size
0
reset
how to read this tab
guitar tuner
edit
Autoscroll
slow
fast
+/-
esc
set tempo
stop
Bueno le dejo los punteos y acordes de esta version de al natural de
A mi cama.. No se si es la unica version del tema que hay pero las
demas estaban todas mal de acordes. Aca les dejo los originales y
algunos arpegios (para ls mas avanzados) a los que denomino FILL (N)
que hace el guitarista, pero no se hagan problema si no los entienden.
Estan a lo ultimo!!

Antes que nada ls acordes que uso yo:

   C4  Dmaj6  G/B
e--3--|--5--|--x--|
B--1--|--3--|--3--|
G--0--|--4--|--0--|
D--2--|--0--|--x--|
A--3--|-----|--2--|
E--x--|-----|--x--|


Intro:

G - C4 - Dmaj6 - C4

Punteo Intro:
  G              C4             Dmaj6          C4
e-3---------3----------3------|--5---------5-----------3---|
B---3---------0-(1)------1----|----3---------3-(1)-------1-|
G-----4---------------------0-|----------------------0-----|
D-------5---------------------|------5-4-------------------|
A-------------------3---------|----------------------------|
E-----------------------------|----------------------------|


G                  (Fill 1)
Tiendo y destiendo mi cama
          Em              (Fill 2)
sacudo pedazos de sueños en llamas
            C      G/B  Am
sombras delatoras de amor
  D          G     (Fill 3)
ocultan su cara.


G                (Fill 1)
Cae una sábana blanca
         Em               (Fill 2)
como la nevada cae en la montaña
              C     G/B  Am
y caigo en la cuenta
  D           G     (Fill 3)
de tus manos blandas.


G                   (Fill 1)
Torre de Babel cuadrada
        Em              (Fill 2)
como Penélope teje angustiada
      C        G/B  Am
y desteje mi desnudez
  D        G       (Fill 5)
acobardada.


Estribillo:


Em
Mi cama sabe
      Dsus9        C
todo lo que soy y puedo ser
 G/B     Am    D    (Fill 4)
y no me dejan,
         G     (Fill 5)
y no me dejan.

Em
Mi cama sangra
      D             C
cada tajo que me espantan
 G/B     Am    D    (Fill 4)
y por las noches
D           G      (Fill 3)
me acuna y canta.

----------------------------------------------------------------------

Inter 1:

  G               C           D                  C
e-7-----------7------|------8-5--|------------------|
B---8-------------5v-|--5h8------|-7s-7p5---5-------|
G-----7-4v------7----|-7---------|--------7---7-----|
D--------------------|-----------|---------------(5)|
A--------------------|-----------|------------------|
E--------------------|-----------|------------------|

----------------------------------------------------------------------

G                  (Fill 1)
Abro una puerta de gasas
          Em         (Fill 2)
entrego mi cuerpo ella me abraza
              C      G/B  Am
y guardo los puños hasta mañana
  D           G     (Fill 3)
bajo la almohada.


  G                              Em
e-3-3-3-3-3--5/7-7-|-7-7-7h8-7-|-------------------|----------|
B------------------|-----------|-5-5-5-5-5-5h7-8-8-|-8-8h10-8-|
G------------------|-----------|-------------------|----------|
D------------------|-----------|-------------------|----------|
A------------------|-----------|-------------------|----------|
E------------------|-----------|-------------------|----------|
  C       G/B    Am   D         G
e------------------|----------------|
B-------------5--5-|--5--5-5h7-8-8--|
G-5-5-5-5-5h7------|----------------|
D------------------|----------------|
A------------------|----------------|
E------------------|----------------|

(Fill 3)

----------------------------------------------------------------------

G                  (Fill 1)
Es mi madre necesaria
          Em          (Fill 2)
remedo de tumba, perra guardiana
            C      G/B  Am
mientras susurra su nana
    D           G     (Fill 5)
afila las zarpas.


Estribillo:


Em
Mi cama sabe
      Dsus9        C
todo lo que soy y puedo ser
 G/B     Am    D    (Fill 4)
y no me dejan,
 D        G     (Fill 5)
y no me dejan.


Em
Mi cama sangra
      D             C
cada tajo que me espantan
 G/B     Am    D    (Fill 4)
y por las noches
 D          G      (Fill 3)
me acuna y canta.

----------------------------------------------------------------------

Inter 1:

  G               C           D                  C
e-7-----------7------|------8-5--|------------------|
B---8-------------5v-|--5h8------|-7s-7p5---5-------|
G-----7-4v------7----|-7---------|--------7---7-----|
D--------------------|-----------|---------------(5)|
A--------------------|-----------|------------------|
E--------------------|-----------|------------------|

----------------------------------------------------------------------

G                  (Fill 1)
Tiendo y destiendo mi cama
          Em          (Fill 2)
aparto la mies de la cizaña
            C      G/B  Am
y por un camino de nada
  D           G     (Em - D) (Fill 6)
regreso a casa,
           C  G/B   Am    D
y por un camino de nada
              Final
regreso a casa.

----------------------------------------------------------------------
Final:

  G               C           D                  C
e-7-----------7------|------8-10s-|--8h7----7---8h7---------------|
B---8-------------5v-|--5h8-------|------8----------7--------5/8--|
G-----7-4v------7----|-7----------|--------------------7-5-4------|
D--------------------|------------|-------------------------------|
A--------------------|------------|-------------------------------|
E--------------------|------------|-------------------------------|

----------------------------------------------------------------------
Algunos arpegios:


Fill 1:

  G   C4
e-3---3-(3)
B-3---x-(3)
G-0---x-(0)
D-0---0-(0)
A-2---3-(2)
E-3---3-(3)


Fill 2
  Em            G/B
e-0--0---2---3-|---|
B-x----0---0---|-3-|
G-x------------|---|
D-2--2---2---3-|---| C
A-2------------|-2-|
E-0------------|---|


Fill 3:
  G    C9        G/B      Am     G
e-3----------------------------------|
B---3--------3---------3-------------|
G---------0----------0---------------|
D------------------------------------|
A-----(3)--------(2)-------(0)-------|
E-3------------------------------(3)-|

Fill 4

  Am                D
e-0--------1----3--(2)--|
B-1----------0------3---|
G-2------2----------2---|
D-2----2------------0---|
A-0--0------------------|
E-----------------------|


Fill 5:
  G    C9        G/B      Am     Em
e-3----------------------------------|
B---3--------3---------3-------------|
G---------0----------0---------------|
D------------------------------------|
A-----(3)--------(2)-------(0)-------|
E-3------------------------------(0)-|


(Fill 6):

  G      Em   D
e-3-----------3---|
B-3-----------2---|
G-0-----------3---|
D-0------2----0---|
A-2------2--------|
E-3--3-2-0--------|


AGUANTE LOS JORGES DE BAHIA!

            
            
Suggest correction
Creating personal tab
Creating personal tab
You can edit any tab online and save it as your Personal.

You can edit, replace or remove any tab part or add personal notes – all changes will be seen only by you.

Personal tabs can be accessed anytime from any device, even offline.
Learn more »
Give kudos to tab author, rate the tab!
1 2 3 4 5
comments
print report bad tab
guest
Wanna post a correction for this tab? Suggest correction