Oops, an error
Loading. Please wait.

Traigan Vino tab

11 views 1 this week
no commentswrite comment
1 2 3 4 5
3 more votes to show rating
add to favorites
×
Save as Personal and add changes to this tab that will be seen only by you. Learn more ›
×
You can save this tab as Personal to edit and correct it or add notes. All changes will be seen only by you. Learn more »
launch autoscroll
font size
0
reset
how to read this tab
guitar tuner
edit
Autoscroll
slow
fast
+/-
esc
set tempo
stop
El tema comienza de esta manera, y se repite en los versos:

   D5                                               C5
E|--5--------5----------5---------5--3--2----0------3--------3----------3--
B|--------3----------3------------------------------------1----------1-----
G|-----2----------2------------------------------------0----------0--------
D|--0-----------------------------------------------0----------------------
A|-------------------------------------------------------------------------
E|-------------------------------------------------------------------------


C5                 C5                                         D
--3-------3--------3----------3----------3---------3--2--0------------|
-----1---------------------1----------1-----------------------3----3--|
------------------------0----------0----------------------------------|
-------------------0--------------------------------------------------|
----------------------------------------------------------------------|
----------------------------------------------------------------------|


         C     F         D
----------------------------------------------------------------||
----------------------------------------------------------------||
----------------------------------------------------------------||
------------------3------0----------0---------------------------||
-------0--3----0--------------0--3------------------------------||
----------------------------------------------------------------||


Bueno mas o menos es así, quizá cambia el arpegio; muy poco.
Desde "traigan ropa de cuero..." va lo siguiente (SE PUEDEN HACER
CON TRIADAS):

    F        Am         G                         F        Am
E|--1--------0----------3--------0-0-0-0-0-0-0----1--------0--------
B|--1--------1----------0--------6-5-4-3-2-1-0----1--------1--------
G|--2--------2----------0-------------------------2--------2--------
D|--3--------2----------0-------------------------3--------2--------
A|--3--------0----------2--------8-7-6-5-4-3-2----3--------0--------
E|--1--------0----------3-------------------------1--------0--------


  G        B  C    D       D
--3----------------2-------2----5-4-5----7-5--3---2----3-2-----------0----
--0--------4--5----3-------3-------------------------------3-------3----3-
--0--------4--5----2-------2----------------------------------------------
--0--------4--5----0----0---------------------------------------0---------
--2--------2--3-----------------------------------------------------------
--3-----------------------------------------------------------------------


----------0------------0----|-----0------------0------|
--------3----3-------3----3-|-----3----------2---2----|
----------------------------|-------------------------|
----------------------------|----------------------2--|
-----3------------2---------|--1-----------0----------|
----------------------------|-------------------------|


-----------0-5-2-0---0--0-----|-----------0------------------|
--------2^---------3----------|-------------2----------------|
------------------------------|--------4^-----4-2-0-2--2-----|
--4--5---------------------2--|--4--5---------------------2--|
------------------------------|------------------------------|
------------------------------|------------------------------|


------------------------------|------------|
------------------------------|------------|
------------------------------|-----0-2----|
--4--(5)----2h-4----4h-5--4-5-|------------|
------------------------------|------------|
------------------------------|------------|


y al final transporta de D a F

E|--10-10-10-10--------10-8-7--5-|-----8-8-8-8--------8-8-8-|
B|---8--8--8--8------------------|-----6-6-6-6--------6-6-6-|
G|---7--7--7--7------------------|-----5-5-5-5--------5-5-5-|
D|-------------------------------|--------------------------|
A|-------------------------------|--------------------------|
E|-------------------------------|--------------------------|


--8--------8-7-5------0--|
--6---------------8--10--|
--5-------------------9--|
-------------------------|
-------------------------|
-------------------------|


(Por supuesto que hay dos guitarras; traté de adaptar el tema a una).
La otra guitarra mete cosas como:

E||--8-7-5---7-5--||
B||--------8------||
G||---------------||
D||---------------||
A||---------------||
E||---------------||


Espero que quede más o menos claro. Tengo 14, espero que se entienda.
Lo saqué nada más porque quería saber como era, y no lo encontre acá.
Así que lo saqué por mi mismo. Si queda alguna duda del tema:
nachoescobio@

            
            
Suggest correction
Creating personal tab
Creating personal tab
You can edit any tab online and save it as your Personal.

You can edit, replace or remove any tab part or add personal notes – all changes will be seen only by you.

Personal tabs can be accessed anytime from any device, even offline.
Learn more »
Give kudos to tab author, rate the tab!
1 2 3 4 5
comments
print report bad tab
guest
Wanna post a correction for this tab? Suggest correction