Oops, an error
Loading. Please wait.

Nuestra Historia tab

54 views 3 this week
no commentswrite comment
1 2 3 4 5
3 more votes to show rating
add to favorites
×
Save as Personal and add changes to this tab that will be seen only by you. Learn more ›
×
You can save this tab as Personal to edit and correct it or add notes. All changes will be seen only by you. Learn more »
launch autoscroll
font size
0
reset
how to read this tab
guitar tuner
edit
Autoscroll
slow
fast
+/-
esc
set tempo
stop
Nuestra Historia
Roque Valero

Esta es una forma facil de tocar, bien similar a la original.
Adaptada para poder tocar y cantar al mismo tiempo.
Esta cancion va dedicada a mi esposa Mayra.

       Intro
Acorde---> E
Duración-> E   E    E  E  E  E  S S E       E  E    E  E  E  E  Q
    E||--5g4------2g0-----------0-2----|--5g4-----2g0--------0--L----|
    B||----5--------0-----------0---0--|----5-------0--------0--L----|
    G||--------4-------1-----1---------|-------4-------1-----1--L----|
    D||--------------------------------|-----------------------------|
    A||--------------------------------|-----------------------------|
    E||----0--------------0------------|----0-------------0-----L----|


    Estrofa
    E                               B7
    E       E  E  E  E  E  E  E     E  E  E  E  E  E  E  E
|--------------0-----------0-----|--------2-----------2-----|
|--------------0-----------0-----|--------0-----------0-----|
|*----------1-----1-----1-----1--|-----2-----2-----2-----2--|
|*-------------------------------|--1-----------------------|
|--------------------------------|--------------2-----------|
|---0----------------0-----------|--------------------------|


  Dsus2                         C#m7
  E     E  E  E  E  E  E  E     E    E  E  E  E  E  E  E
-----------0-----------0-----|----------0-----------0-----|
-----------3-----------3-----|----------0-----------0-----|
--------2-----2-----2-----2--|-------------1-----------1--|
--0--------------------------|-------2-----------2--------|
-----------------0-----------|--4-------------4-----------|
-----------------------------|----------------------------|


  Am/C                         E/B
  E    E  E  E  E  E  E  E     E   E  E  E  E  E  E  E
----------0-----------0-----|---------0-----------0-----|
----------1-----------1-----|---------0-----------0-----|
-------------2-----------2--|------------1-----------1--|
-------2-----------2--------|------2-----------2--------|
--3-------------3-----------|--2------------2-----------|
----------------------------|---------------------------|


  Asus2          A/G#             F#m          F#m7/E
  E     E  E  E  E    E  E  E     E   E  E  E  E      E  E  E
-------------------------------|-------------------------------|
-----------0-------------0-----|---------2---------------2-----|
-----------2-------------2-----|---------2---------------2-----|
--------2-----2-------2-----2--|------------4---------------2--|
--0----------------------------|------4---------------4--------|
-----------------4-------------|--2------------0---------------|


  B7/D#          B7
  E     E  E  E  E  E  E  E
-----------2-----------2------||
-----------0-----------0------||
--------2-----2-----2-----2--*||
--1--------------------------*||
-----------------2------------||
------------------------------||

-->Estrofa I
           E
Nuestra historia es tan extraña y divertida
        B7
que no creo que nadie se atrevería
      Dsus2
a cantarla emularla o discutirla
        C#m7
pues carece de sentido y melodía
        Am
nuestra historia no es tan buena ni es tan mala
         E
y aunque lo parezca no es la equivocada

                     Asus2            Asus2/G#
Sólo es una rara historia que va que regresa
               F#m  F#m7               B7
que sueña y promete  -   ser un poco diferente

Nuestra historia es tan compleja y dispareja
absoluta relegada e inocente
que si tuvo algún pasado no hay presente
y el futuro se me hace inconsistente
esta llena de reclamos olvidados
fueron muchos los errores oxidados
esta es una rara historia...

-->Coro
            E                                Bsus2
Nuestra historia es tan extraña que aunque quisiera cantarla
      Dsus2                   C#m7
No podría mi garganta está vencida y desgastada
      Am                        E
De tanto gritar tu nombre al llegar y no verte en casa
       F#m7                   B7
Se me gasta la memoria recordándote en la cama
            E                           Bsus2
Nuestra historia es tan absurda es tan loca inhumana
        Dsus2                         C#m7
Que el final es un comienzo y tengo que aguantar mis ganas
       Am                         E
De abrazarte por las noches y buscarte en las mañanas
        F#m7                    B              E
Se me acaban los recuerdos esperando tu regreso

-->Estrofa II

Nuestra historia tonta y de telenovela
esta llena de altibajos y condenas
no es tan larga no es tan corta no es eterna
cuesta mucho sacrificio mantenerla
hay problemas serios con las emociones
tienen madurez y precipitaciones
esta es una tonta historia...

Nuestra historia es de venganzas y mentiras
De estrategias y de falsas reconquistas
Hay llamadas que no han debido hacerse
Y miradas que el tiempo las desvanece
Esta historia me ha hecho perder la cordura
Ella empieza se termina y continúa
Esta es una tonta historia...

 ---------------LEYENDA---------------------
|>Acordes                                   |
|                                           ||
|  Dsus2    Asus2  Asus2/G#   Bsus2         ||
|      /       /       /        /       ||
| xxO==O   xO==OO   =x==OO    ======        ||
| ||||||   ||||||   ||||||    ||||||        ||
| |||O||   ||OO||   ||OO||    xO||OO        ||
| ||||O|   ||||||   ||||||    ||||||        ||
| ||||||   ||||||   O|||||    ||OO||        ||
| ||||||   ||||||   ||||||    ||||||        ||
|                                           ||
 ------------------------------------------- |
  --------------------------------------------

Leyenda de Duraciones
---------------
W - Redonda
H - Blanca
Q - Negra
E - Corchea
S - Semicorchea
T - Fusa
X - Semifusa
. - nota con punto

|-n-|  - n-tuplets


Leyenda para la Tablatura
----------------
L - tied note
x - dead note
g - grace note
(n) - ghost note
> - accentuded note
NH - natural harmonic
AH - artificial harmonic
TH - tapped harmonic
SH - semi harmonic
PH - pitch harmonic
h - hammer on
p - pull off
b - bend
br - bendRelease
pb - preBend
pbr - preBendRelease
brb - bendReleaseBend
n/ - tremolo bar dip
n - tremolo bar dive
-/n - tremolo bar Release up
/n - tremolo bar inverted dip
/n - tremolo bar return
-n - tremolo bar Release down
S - shift slide
s - legato slide
/ -  slide into from below or out of upwards
 -  slide into from above or out of downwards
~ - vibrato
W - wide vibrato
tr - trill
TP - tremolo picking
T - tapping
S - slap
P - pop
< - fade in
^ - brush up
v - brush down

            
            
Suggest correction
Creating personal tab
Creating personal tab
You can edit any tab online and save it as your Personal.

You can edit, replace or remove any tab part or add personal notes – all changes will be seen only by you.

Personal tabs can be accessed anytime from any device, even offline.
Learn more »
Give kudos to tab author, rate the tab!
1 2 3 4 5
comments
print report bad tab
guest
Wanna post a correction for this tab? Suggest correction