Oops, an error
Loading. Please wait.

Vengo A Contar Contigo tab

26 views 1 this week
no commentswrite comment
1 2 3 4 5
2 more votes to show rating
add to favorites
×
Save as Personal and add changes to this tab that will be seen only by you. Learn more ›
×
You can save this tab as Personal to edit and correct it or add notes. All changes will be seen only by you. Learn more »
launch autoscroll
font size
0
reset
how to read this tab
guitar tuner
edit
Autoscroll
slow
fast
+/-
esc
set tempo
stop
Intro:
|-----------------3------2--3-----------|
|-3----3----3---3-------3-----3---------|
|---0----0----0-------2-----------------|
|-----0----0----------------------------|
|-------------------3-------------------|
|---------------------------------------|

|-----------------3------2--3----0----10------|
|-3----3----3---3-------3-----3-----------10--|
|---0----0----0-------2-----------------12----|
|-----0----0----------------------------------|
|-------------------3-------------------------|
|---------------------------------------------|

Verso:
          G
Vengo del agua que el tiempo oscurese
|----------------------------------------|
|---------------3----3---------3-----3---|
|-------------0---0----0-----0---0-----0-|
|-----------0-------0------0-------0-----|
|----------------------------------------|
|---------3--------------3---------------|


De esas miradas que ya ni se miran
|--------------------------------------|
|----------------3---3--------3---3----|
|--------------0---0--0-----0--0---0---|
|------------2------2------2-----2-----|
|----------3-------------3-------------|
|--------------------------------------|

(asi van todos los versos solo que el 2do y el 3ero
se hacen en un charrasqueo que es G y una especie de
C solo que el dedo indice en el traste 1 se substituye
por el meñique en el traste 3)

Precoro:
             C               D
Y es que yo vengo, desde el mar adentro
|------------0----0----------2---2-----|
|------------1-----1-----1---3----3--3-|
|------------0---0-----0-----2-2---2---|
|------------2-------------------------|
|------------3-------------------------|
|------------0-------------------------|

   Bm                  Em        Am
Cargando las luces de todo el universo
|-------------------------0---0------0-|
|------------------------0---0------3--|
|----------3----3-------0---0------0---|
|--------4---4----4---2---0-------2----|
|------4-------4-----------------3-----|
|---2----------------------------------|
  D
    Para alumbrarte un beso
|-2-------------------------|
|-3-------------------------|
|-2-------------------------|
|---------------------------|
|---------------------------|
|---------------------------|

(aqui va el intro otra vez, despues el 2do verso
 en forma de charrasqueo, el precoro y el coro dice
 asi)

(*C: el C que en el primer verso se explica que es con
el dedo meñique en el traste 3 en vez del dedo indice
en el traste 1)
 Coro:
 G     *C               D             Bm
Vengo de esa gota de rocio que ha empañado
              Em               Am              D
Todos los sentidos, vengo del frio, de las nostalgias
 G     *C                 D              Bm
Vengo de esta lluvia pasajera que ha empapado
            Em                  C            Am    D
Todos los caminos, vengo de un hilo, y con sonidos

Vengo a contar contigo

(aqui entra el intro)

Finalmente termina esta pieza, muy bonita la rola
escrita por el cantaautor Roque Valero, pienso que
le queda un futuro inmenso por ganar. Tiene exito!
Te la dedico flaca bella ..!!
Suggest correction
Creating personal tab
Creating personal tab
You can edit any tab online and save it as your Personal.

You can edit, replace or remove any tab part or add personal notes – all changes will be seen only by you.

Personal tabs can be accessed anytime from any device, even offline.
Learn more »
Give kudos to tab author, rate the tab!
1 2 3 4 5
comments
print report bad tab
guest
Wanna post a correction for this tab? Suggest correction