Oops, an error
Loading. Please wait.

Do You Read Me tab

version 1
version 1

Whole song

Interactive

8,388 views 12 this week
no commentswrite comment
1 2 3 4 5
1 last vote to show rating
add to favorites
×
Save as Personal and add changes to this tab that will be seen only by you. Learn more ›
×
You can save this tab as Personal to edit and correct it or add notes. All changes will be seen only by you. Learn more »
launch autoscroll
font size
0
reset
how to read this tab
guitar tuner
backing track
0:00
0:00
edit
Autoscroll
slow
fast
+/-
esc
set tempo
stop
Author
Do you read me – Rory Gallagher (CD: Calling Card)

Intro

   |   |    |    |     |    |    |   |      
e|-------------------|------------------|
B|-6---6-------------|------------------|
G|----------5----5---|-5h7--------------|
D|-------------------|------------------|
A|-------------------|------------------|
E|-------------------|------------------|

   |     |     |      |        |    |    |    |       
e|---------------------------|------------------|
B|-tr68----------------------|------------------|
G|-------------5h7p5--5------|------------------|
D|---------5/7------7--7-5\3-|------------------|
A|---------------------------|-3--5-------------|
E|---------------------------|------------------|


     |     |      |    |       |       |     |     |       
e|-------------------------|-----------------------------|
B|-------------------------|-----------------------------|
G|----------------5--------|-----------------------------|
D|-----3h5p3--5/7----------|------3h5p3---3----------5h7-|
A|-3/5-------5-------------|-3/5--------5----3-----------|
E|-------------------------|-----------------------------|


   |      |     |    |       |      |      |     |       
e|-------------------------|---------------10---------|
B|--------8b8p6-8-6—6p5----|--------------------------|
G|----6h8--------------7-5-|-7------------------------|
D|-5h7---------------------|--------------------------|
A|-------------------------|--------------------------|
E|-------------------------|--------------------------|
   
   F                        C 
   |     |    |    |        |      |      |     |       
e|-1----------------------|--------------------------|
B|-1----------------------|-5------------------------|
G|-2----------------------|-5------------------------|
D|-3----------------------|-5------------------------|
A|------------------------|-3------------------------|
E|------------------------|--------------------------|

         Dm        G               Dm
   |     |    |    |        |      |      |     |       
e|-------5---------3------|--------5-----------------|
B|-------6---------3------|--------6-----------------|
G|-------7---------4------|--------7-----------------|
D|-------7---------5------|--------8-----------------|
A|------------------------|--------------------------|
E|------------------------|--------------------------|

   F                        C
   |     |    |    |        |      |      |     |       
e|-1----------------------|--------------------------|
B|-1----------------------|-5------------------------|
G|-2----------------------|-5------------------------|
D|-3----------------------|-5------------------------|
A|------------------------|-3------------------------|
E|------------------------|--------------------------|

         Dm        G               A
   |     |    |    |        |      |      |     |       
e|-------5---------3------|--------0-----------------|
B|-------6---------3------|--------2-----------------|
G|-------7---------4------|--------2-----------------|
D|-------7---------5------|--------2-----------------|
A|------------------------|--------0-----------------|
E|------------------------|--------------------------|


               Dm  G   Dm  G                 Dm  G  Dm
Do you read me,           won't you tell me? 
       F                      C                    Dm  G  Dm
If you read me, then please believe me, when I say 
    G                 Dm  G  Dm       G           Dm  G  Dm
Yes I've been waiting,         seems like forever 
          F               C                          Dm  G  Dm
I've been waiting, my situation ain't got much better 
               F                C                           Dm  G  Dm
Well I've been waiting, the situation don't get much better 



Interlude (play 2x):
   C        G        Am      Am       G        G
   |     |     |     |       |     |     |     |       
e|-------------------------|-------------------------|
B|-5--3-----3--------------|-------------------------|
G|-------5-----5—-4-—5--4--|-5--4--2--4--2--5--4-----|
D|-------------------------|----------------------5--|
A|-------------------------|-------------------------|
E|-------------------------|-------------------------|

   Dm                        Dm
   |     |     |     |       |     |     |     |       
e|-------------------------|-------------------------|
B|-------------------------|-------------------------|
G|-2-----------------------|-------------------------|
D|-------------------------|-------------------------|
A|-------------------------|-------------------------|
E|-------------------------|-------------------------|


          G7(9)                 G7(9)
You don't do unto others as you do unto me, 
      Dm                         Dm
Well, why am I the only one that treats you this way? 
      G7(9)                           G7(9)
Well, you got that something and it's hard to specify, 
A                          C    
I just can't diagnose that look in your eyes. 

Solo (play 2x):
|Dm    G  |Dm   G   |Dm   G   |Dm      |
|F        |C        |Dm   G   |Dm      |

          G7(9)              G7(9)
You don't do unto me, like I know you could 
Dm                          Dm    
Why am I the only one who's misunderstood? 
G7(9)                    G7(9)
Ashes to ashes, and it's dust to dust, 
      A                           C
Well, if you won't take me then I guess the devil must. 

                 Dm  G   Dm   G                   Dm  G  Dm
I've been hurting,         my hearts been burning, 
          F                      C                      Dm  G  Dm
I've been hurting, but I've been learning, just the same 
                       Dm  G   Dm      G            Dm  G  Dm
Well, I've been waiting,         seems like forever 
                F               C                          Dm  G  Dm
While I've been waiting, my situation ain't got much better 
                F               C                          Dm  G  Dm
While I've been waiting, my situation ain't got much better 
                F               C                          Dm  G  Dm
While I've been waiting, my situation don't got much better 


Solo:
|F        |C        |Dm   G   |Dm      |
|F        |C        |Dm   G   |Dm      |
|F        |C        |Dm   G   |Dm      |
|F        |C        |Dm   G   |Dm      |



Coda (play 3x):
   C        G        Am      Am       G        G
   |     |     |     |       |     |     |     |       
e|-------------------------|-------------------------|
B|-5--3-----3--------------|-------------------------|
G|-------5-----5—-4-—5--4--|-5--4--2--4--2--5--4-----|
D|-------------------------|----------------------5--|
A|-------------------------|-------------------------|
E|-------------------------|-------------------------|

   Dm                        Dm
   |     |     |     |       |     |     |     |       
e|-------------------------|-------------------------|
B|-------------------------|-------------------------|
G|-2-----------------------|-------------------------|
D|-------------------------|-------------------------|
A|-------------------------|-------------------------|
E|-------------------------|-------------------------|


Transcribed by Gerard Koot (Amsterdam, The Netherlands) – june 2008
Email: gerardkoot@hotmail.com



            
            
Suggest correction
Creating personal tab
Creating personal tab
You can edit any tab online and save it as your Personal.

You can edit, replace or remove any tab part or add personal notes – all changes will be seen only by you.

Personal tabs can be accessed anytime from any device, even offline.
Learn more »
Give kudos to tab author, rate the tab!
1 2 3 4 5
comments
print report bad tab
guest
You may want to rate the tab now too:
select rating
Wanna post a correction for this tab? Suggest correction