Oops, an error
Loading. Please wait.

Dont Know Where Im Going tab

version 1
version 1

Whole song

Interactive

343 views 12 this week
no commentswrite comment
1 2 3 4 5
3 more votes to show rating
add to favorites
×
Save as Personal and add changes to this tab that will be seen only by you. Learn more ›
×
You can save this tab as Personal to edit and correct it or add notes. All changes will be seen only by you. Learn more »
launch autoscroll
font size
0
reset
how to read this tab
guitar tuner
edit
Autoscroll
slow
fast
+/-
esc
set tempo
stop
DON'T KNOW WHERE I'M GOING

As recorded by Rory Gallagher
(From the 1971 Album DEUCE)

Words and Music by Rory Gallagher

Transcribed by Slowhand


Gtr I (Eb Ab Db Gb Bb Eb) - 'Rory Gallagher - Acoustic 12-string Guitar (1/2 step down)'


 Intro
  Q=102
  N.C.             C               E7
 4/4
  Gtr I (Ac. 12-string Gtr. - 1/2 step down: Eb Ab Db Gb Bb Eb)
  H    S S E E E   S S S S S S S S  S  S S S S S S S
|----------------|-----------------------------------|
|----------------|---1---1---1---1-----0---0---0---0-|
|----------------|-----------------------1-------1---|
|----------------|-----2-------2---------0-------0---|
|--------0---0-2-|-3-------3-------(2)---------------|
|----------3-----|------------------0--------0-------|


  Am      Am/G  D/F#
  S S S S E S S S S  S  S S S  S  S
|------------------------------------|
|---1---------1---3-----3---3-----3--|
|-------2-----2---2-----2---2-----2--|
|-2-----------------(0)-------(0)----|
|-----0-----0--------0---------0-----|
|---------3-----2---------2----------|


  C           G
  S S E S S E S S S S S S S S
|-----0-----0-----3-3---3---3-|
|-----1-----1-----0-0---0---0-|
|-----0-----0-----0-0---0---0-|
|-----2-----2-----0-0---0---0-|
|-3-3-----------------0---2---|
|-------3-3---3-3-------------|


                                Harmonica Solo
                                 C           E7
  E E S S S S S S S S S S S S    E S S S S E E S S S S S  S
|---0-----0-0-----3-3---3---3-||---0-0---------0-0---0---(0)--|
|---1-----1-1-----0-0---0---0-||---1-1---------0-0---0---(1)--|
|---0-----0-0-----0-0---0---0-||---0-0-0-0-0-1-1-1-1-1-1-(2)--|
|---2-----2-2-----0-0---0---0-||---2-2-2-2-2-0-0-0-0-0-0-(2)--|
|-3-------------------0---2---||-3-----3-3-3-2-----2---2------|
|-----3-3-----3-3-------------||-------------0-----0---0------|


  Am      D/F#      C       G         C         G
  E E E E E E E E   E E E E E E E E   E E E S S E E E E
|-0-0-0-0---------|---0---0---3---3-|---0---0-0---3------||
|-1-1-1-1---3---3-|---1---1---0---0-|---1---1-1---0------||
|-2-2-2-2---2---2-|---0---0---0---0-|---0---0-0---0------||
|-2-2-2-2---0---0-|---2---2---0---0-|---2---2-2---0------||
|-0-0-0-----------|-3-3-3-3-2---2---|-3-3-3---------0-2--||
|-------3-2---2---|-----------------|-----------3--------||


 1st Verse
  C       E7              Am  Am/GD/F#              C       G
  E E E E E S S S S S S   E E E E S S S S S S S S   E E E E E E E E
|---0---0---0-0---0-0-0-|---0---0-----------------|---0---0---3-----|
|---1---1---0-0---0-0-0-|---1---1---3-3-3---3-3-3-|---1---1---0-----|
|---0---0---1-1---1-1-1-|---2---2---2-2-2---2-2-2-|---0---0---0-----|
|---2---2---0-0---0-0-0-|---2---2---0-0-0---0-0-0-|---2---2---0-----|
|-3---------------------|-0-----------------------|-3-----------0-2-|
|-----3---0-----0-------|-----3---2-------2-------|-----3---3-------|


                              $
  C           G
  E E S S S S S S S S S S S S
|---0---0-0-0---3-3-3---3---3-|
|---1---1-1-1---0-0-0---0---0-|
|---0---0-0-0---0-0-0---0---0-|
|---2---2-2-2---0-0-0---0---0-|
|-3---3---------------0---2---|
|-------------3---------------|


   2nd & 4th Verses
    C       E7              Am  Am/G  D/F#
    E E E E E S S S S S S   E E  E  E S S S S S S S S
||----0---0---0-0---0-0-0-|---0-----0-----------------|
||o---1---1---0-0---0-0-0-|---1-----1---3-3-3---3-3-3-|
||----0---0---1-1---1-1-1-|---2-----2---2-2-2---2-2-2-|
||----2---2---0-0---0-0-0-|---2-----2---0-0-0---0-0-0-|
||o-3---------------------|-0---(0)-------------------|
||------3---0-----0-------|------3----2-------2-------|


                                      3rd & 5th Verses
  C       G         C       C/G        C       E7
  E E E E E E E E   E E E E E E E E    E E E E E S S S S S S
|---0---0---3-----|---0---0-0-0-----||---0---0---0-0---0-0-0-|
|---1---1---0-----|---1---1-1-1-----||---1---1---0-0---0-0-0-|
|---0---0---0-----|---0---0-0-0-----||---0---0---1-1---1-1-1-|
|---2---2---0-----|---2---2-2-2-----||---2---2---0-0---0-0-0-|
|-3-----------0-2-|-3-----------0-2-||-3---------------------|
|-----3---3-------|-----3---3-3-----||-----3---0-----0-------|


                                       To Coda
  Am        D/F#              C       G
  E E  E  E S S S S S S S S   E E E E E E E E    E E E E E E E E
|---0-----0-----------------|---0---0---3------|---0---0----------||
|---1-----1---3-3-3---3-3-3-|---1---1---0------|---1---1----------||
|---2-----2---2-2-2---2-2-2-|---0---0---0------|---0---0----------||
|---2-----2---0-0-0---0-0-0-|---2---2---0------|---2---2----------||
|-0---(0)-------------------|-3-----------0-2--|-3-------3-3-2-1--||
|------3----2-------2-------|-----3---3--------|-----3------------||


 Bridge
  A7      D         B7      Em        Am      D7
  E E E E E E E E   E E E E E E E E   E E E E E E E E
|---3---3---2-----|-----------------|---0---0---2---2-|
|---2---2---3-----|---0---0---0---0-|---1---1---1---1-|
|---2---2---2---0-|---2---2---0---0-|---2---2---2---2-|
|---2---2-0-0-0---|---1---1---2---2-|---2---2-0---0---|
|-0---0-----------|-2---2-----2---2-|-0---0-----------|
|-----------------|---------0---0---|-----------------|


  G                           A7      D             B7      Em
  E S S E E S S S S S S S S   E E E E E S S S S E   E E E E E E E E
|---3-3---3---3-3-3-3-3-3-3-|---3---3---2-2-2-2-2-|-----------------|
|---0-0---0---0-0-0-0-0-0-0-|---2---2---3-3-3-3-3-|---0---0---0---0-|
|---0-0---0---0-0-0-0-0-0-0-|---2---2---2-2-2-2-2-|---2---2---0---0-|
|---0-0---0---0-0-0-0-0-0-0-|---2---2-0-0-0-0-0-0-|---1---1---2---2-|
|---------------------------|-0---0---------------|-2---2-----2---2-|
|-3-----3---3---------------|---------------------|---------0---0---|


                         1.                    2.
                                                      D.S. al Coda
  Am      D7              G
  E E E E E S S S S S S   E S S E E E E E E     E S S E E E E E E
|---0---0---2-2-2-2-2-2-|---3-3---3----------||---3-3---3----------||
|---1---1---1-1-1-1-1-1-|---0-0---0---------o||---0-0---0----------||
|---2---2---2-2-2-2-2-2-|---0-0---0----------||---0-0---0----------||
|---2---2-0-------------|---0-0---0----------||---0-0---0----------||
|-0---0-----------------|---------------0-2-o||---------------0-2--||
|-----------------------|-3-----3---3-3------||-3-----3---3-3------||


  &
  C           G
  E E S S S S S S S S S S S S
|---0---0-0-0---3-3-3---3---3-|
|---1---1-1-1---0-0-0---0---0-|
|---0---0-0-0---0-0-0---0---0-|
|---2---2-2-2---0-0-0---0---0-|
|-3-------------------0---2---|
|-----3-------3---------------|


   Harmonica Solo
    C           E7              Am            D/F#
    E E S S S S E S S S S S S   E S S S S S S S S S S E E
||----0---0-0-0---0-0---0-0-0-|---0-0---0-0-0---------------|
||o---1---1-1-1---0-0---0-0-0-|---1-1---1-1-1---3-3-3-------|
||----0---0-0-0---1-1---1-1-1-|---2-2---2-2-2---2-2-2-------|
||----2---2-2-2---0-0---0-0-0-|---2-2---2-2-2---0-0-0-------|
||o-3---3---------------------|-0---------------------------|
||--------------0-----0-------|-------3-------2-------2-0---|


                               1.
  C           G                 C           G7
  E E S S S S S S S S S S S S   E E S S S S S S S S S S S S
|---0---0-0-0---3-3-3-3-3-3-3-|---0---0-0-0---1-1-1-1-1-1-1--||
|---1---1-1-1---0-0-0-0-0-0-0-|---1---1-1-1---0-0-0-0-0-0-0-o||
|---0---0-0-0---0-0-0-0-0-0-0-|---0---0-0-0---0-0-0-0-0-0-0--||
|---2---2-2-2---0-0-0-0-0-0-0-|---2---2-2-2---0-0-0-0-0-0-0--||
|-3---3-----------------------|-3---3-----------------------o||
|-------------3---------------|-------------3----------------||


 2.
  C           G
  E E S S S S S S S S S S S S
|---0---0-0-0---3-3-3---3---3-||
|---1---1-1-1---0-0-0---0---0-||
|---0---0-0-0---0-0-0---0---0-||
|---2---2-2-2---0-0-0---0---0-||
|-3---3---------------0---2---||
|-------------3---------------||


   Outro
    C       E7                Am  Am/GD/F#
    E E E E S S S S S S S S   E E E E E E E E
||----0---0---0-0-0---0-0-0-|---0---0---------|
||o---1---1---0-0-0---0-0-0-|---1---1---3---3-|
||----0---0---1-1-1---1-1-1-|---2---2---2---2-|
||----2---2---0-0-0---0-0-0-|---2---2---0---0-|
||o-3-----------------------|-0---------------|
||------3---0-------0-------|-----3---2---2---|


  C       G               C       G
  E E E E E S S S S S S   E E E E E E E E
|---0---0---3-3---3---3-|---0---0---3-------||
|---1---1---0-0---0---0-|---1---1---0------o||
|---0---0---0-0---0---0-|---0---0---0-------||
|---2---2---0-0---0---0-|---2---2---0-------||
|-3-------------0---2---|-3-----------0-2--o||
|-----3---3-------------|-----3---3---------||


Duration Legend
---------------
W - whole; H - half; Q - quarter; E - 8th; S - 16th; T - 32nd; X - 64th; a - acciaccatura
+ - note tied to previous; . - note dotted; .. - note double dotted
Uncapitalized letters represent notes that are staccato (1/2 duration)
Irregular groupings are notated above the duration line
Duration letters will always appear directly above the note/fret number it represents the
duration for.  Duration letters with no fret number below them represent rests.  Multi-
bar rests are notated in the form Wxn, where n is the number of bars to rest for.  Low
melody durations appear below the staff

Tablature Legend
----------------
 h   - hammer-on
 p   - pull-off
 b   - bend
 pb  - pre-bend
 r   - bend release (if no number after the r, then release immediately)
 /\  - slide into or out of (from/to "nowhere")
 s   - legato slide
 S   - shift slide
  - natural harmonic
[n]  - artificial harmonic
n(n) - tapped harmonic
 ~   - vibrato
 tr  - trill
 T   - tap
 TP  - trem. picking
 PM  - palm muting
\n/  - tremolo bar dip; n = amount to dip
 \n  - tremolo bar down
 n/  - tremolo bar up
/n\  - tremolo bar inverted dip
 =   - hold bend; also acts as connecting device for hammers/pulls
 <>  - volume swell (louder/softer)
 x   - on rhythm slash represents muted slash
 o   - on rhythm slash represents single note slash

Misc Legend
-----------
 |  - bar
||  - double bar
||o - repeat start
o|| - repeat end
*|  - double bar (ending)
 :  - bar (freetime)
 $  - Segno
 &  - Coda
Tempo markers -  = BPM(8/16=s8/s16), where s8 = swing 8ths, s16 = swing 16ths



I don't know where I'm going,
Don't know where I've been.
'Cause I haven't seen my baby,
Since I don't know when.

I'm walking down that long road,
With a smile up on my face.
I'm broken hearted,
But you won't see a trace.

Feeling disconnected,
These blues are out to kill.
Sweep them in the corner,
Put 'em in the bin.

All right so you don't sympathise,
Don't expect that you should.
Walk right for one day you might,
Run into this patch of grey clouds too.

All right so you don't sympathise,
I don't expect that you should.
Stay bright for one day you might,
Run into this patch of grey clouds too.

Gravel in my pockets,
From the places I have been,
The soles of my shoes are paper thin.

I got sand here in my pockets.
From the place that I come from.
That's where I'm going,
So I'll say so long...yeah. 

            
            
Suggest correction
Creating personal tab
Creating personal tab
You can edit any tab online and save it as your Personal.

You can edit, replace or remove any tab part or add personal notes – all changes will be seen only by you.

Personal tabs can be accessed anytime from any device, even offline.
Learn more »
Give kudos to tab author, rate the tab!
1 2 3 4 5
comments
print report bad tab
guest
You may want to rate the tab now too:
select rating
Wanna post a correction for this tab? Suggest correction