Oops, an error
Loading. Please wait.

Just The Smile tab

1,282 views 1 this week
no commentswrite comment
1 2 3 4 5
x 3
add to favorites
×
Save as Personal and add changes to this tab that will be seen only by you. Learn more ›
×
You can save this tab as Personal to edit and correct it or add notes. All changes will be seen only by you. Learn more »
launch autoscroll
font size
0
reset
how to read this tab
guitar tuner
edit
Autoscroll
slow
fast
+/-
esc
set tempo
stop
Author
Difficulty
 I see no one else has tabbed this song, and I'm sure there are some people
out there who would like to learn it so I decided to add this tab. I got it
from "The Essential Acoustic Rory Gallagher" Tab book. He plays it a little
differently live but it still sounds great none the less.

The Tuning is DADGAD.

Note: When you see the "v" that means to uprstroke.

INTRO:

D|-----0-----------0-----0-----0-----0--------0-------------------------------|
A|-----0-----------0-----0-----0-----0--------0-------------------------------|
G|-----2-----------0-----0-----0-----0--------2-------------------------------|
D|-----0-----------0-----0-----0-----0--------0-------------------------------|
A|-----0-----------0-----0-----0-----0--------0-------------------------------|
D|-----0-----------0-----0-----0-----0--------0-------------------------------|
       v           ^     ^     ^     ^        v

D|-----0---------------------------------------------------------------------|
A|-----0---------------------------------------------------------------------|
G|-----5h7--5--4--5p4--2--4----2--0--2---------------------------------------|
D|-----0----0--0--0-0--0--0----0--0--0------0--0--0--------------------------|
A|-----0---------------------------------------------------------------------|
D|-----0---------------------------------------------------------------------|

D|-----0---------------------------------------------------------------------|
A|-----0---------------------------------------------------------------------|
G|-----5h7--5--4--5p4--2--4----2--0--2----------------0h2p0----2---2---2-----|
D|-----0----0--0--0-0--0--0----0--0--0-----0--0--0-----------0---0---0---0---|
A|---------------------------------------------------------------------------|
D|---------------------------------------------------------------------------|


D|--------------------------------------------0-------0------0-----0-----0---|
A|--------------------------------------------0-------0------0-----0-----0---|
G|---2---2---2---2------0h2p0-----------------2-------2------2-----2-----2---|
D|-----0---0---0---0----------2-2-----0---0-------0------0------0-----0------|
A|---------------------------------------------------------------------------|
D|---------------------------------------------------------------------------|


D|--------------------0------------------------------------------------------|
A|--------------------0------------------------------------------------------|
G|--------------------5h7--5--4--5p4--2--4----2--0--2------------------------|
D|--------------------0----0--0--0-0--0--0----0--0--0------0--0--0-----------|
A|---0--------0-------0------------------------------------------------------|
D|------0--3----------0------------------------------------------------------|
E|--------------------0------------------------------------------------------|


D|----------------0----------------------------------------------------------|
A|---0h2p0--------------0---0---0---0---0---0---0---0---0---0---0h2p0--------|
G|----------0--0--------2---2---2---2---2---2---2---2---2---2----------2--2--|
D|----------------------0---0---0---0---0---0---0---0---0---0----------------|
A|---------------------------------------------------------------------------|
D|---------------------------------------------------------------------------|


D|-----------0-----0-----0-----0-----0--0------------------------------------|
A|-----------0-----0-----0-----0-----0--0------------------------------------|
G|-----------2-----2-----2-----2-----2--2------------------------------------|
D|---0---0------0-----0-----0-----0-----0----------0-------------------------|
A|-------------------------------------------0--3----------------------------|
D|---------------------------------------------------------------------------|


D|--0--0--0--0--0---0--0--0--0---0--0---0--0--0--0---------------------------|
A|--0--0--0--0--0---0--0--0--0---0--0---0--0--0--0---------------------------|
G|--2--2--2--2--2---2--2--2--2---2--2---2--2--2--2---------------------------|
D|-----0--0--0--0---0--0--0--0---0--0---0--0--0--0---------------------------|
A|---------------------------------------------------------------------------|
D|---------------------------------------------------------------------------|

______________________________________________________________________________

VERSE 1

D|--0--0--0--0--0--0--0--0--0---0--0---0--0--0--0----------------------------|
A|--0--0--0--0--0--0--0--0--0---0--0---0--0--0--0----------------------------|
G|--2--2--2--2--2--2--2--2--2---2--2---2--2--2--2----------------------------|
D|--0--0--0--0--0--0--0--0--0---0--0---0--0--0--0----------------------------|
A|--0------------------------------------------------------------------------|
D|--0------------------------------------------------------------------------|
  Just the smile that is spreading all over her face,

D|--0--0--0--0--0---0--0--0--0---0--0---0--0--0--0---------------------------|
A|--0--0--0--0--0---0--0--0--0---0--0---0--0--0--0---------------------------|
G|--2--2--2--2--2---2--2--2--2---2--2---2--2--2--2---------------------------|
D|--0--0--0--0--0---0--0--0--0---0--0---0--0--0--0---------------------------|
A|--0------------------------------------------------------------------------|
D|--0------------------------------------------------------------------------|
  Could warm up the room and set fire to the place.

D|-------------0-------------------------------------------------------------|
A|---------------------------------------------------------------------------|
G|--0--0--2----------------------------------2------0------------------------|
D|--0--0-------------------------------------0----------2--0-----------------|
A|-------------------------------------------0-------------------------------|
D|----------------0--0--0--0--0--0--0--0--0--0-------------------------------|
    Yes it could,                            You know it could.

D|-----0--0--0--0--0--0----0--0--0--0--0--0--0--0----------------------------|
A|-----0--0--0--0--0--0----0--0--0--0--0--0--0--0----------------------------|
G|-----2--2--2--2--2--2----2--2--2--2--2--2--2--2----------------------------|
D|-----0--0--0--0--0--0----0--0--0--0--0--0--0--0----------------------------|
A|---------------------------------------------------------------------------|
D|---------------------------------------------------------------------------|
       v                   v

D|--0--0--0--0--0---0--0--0--0---0--0---0--0--0--0---------------------------|
A|--0--0--0--0--0---0--0--0--0---0--0---0--0--0--0---------------------------|
G|--2--2--2--2--2---2--2--2--2---2--2---2--2--2--2---------------------------|
D|--0--0--0--0--0---0--0--0--0---0--0---0--0--0--0---------------------------|
A|--0------------------------------------------------------------------------|
D|--0------------------------------------------------------------------------|
    Now the fog is clinging all over the town,

D|--0--0--0--0--0---0--0--0--0---0--0---0--0--0--0---------------------------|
A|--0--0--0--0--0---0--0--0--0---0--0---0--0--0--0---------------------------|
G|--2--2--2--2--2---2--2--2--2---2--2---2--2--2--2---------------------------|
D|--0--0--0--0--0---0--0--0--0---0--0---0--0--0--0---------------------------|
A|--0------------------------------------------------------------------------|
D|--0------------------------------------------------------------------------|
   Put one foot in front then you just might fall down.


D|-------------0---0--0--0--0--0--0--0--0--0---------------------------------|
A|-----------------0--0--0--0--0--0--0--0--0---------------------------------|
G|--0--0--2--------2--2--2--2--2--2--2--2--2--2------0-----------------------|
D|--0--0-----------0--0--0--0--0--0--0--0--0--0----------2--0----------------|
A|--------------------------------------------0------------------------------|
D|--------------------------------------------0------------------------------|
   On the ground,                            She's in town.

D|-----0--0--0--0--0--0----0--0--0--0--0--0--0--0----------------------------|
A|-----0--0--0--0--0--0----0--0--0--0--0--0--0--0----------------------------|
G|-----2--2--2--2--2--2----2--2--2--2--2--2--2--2----------------------------|
D|-----0--0--0--0--0--0----0--0--0--0--0--0--0--0----------------------------|
A|---------------------------------------------------------------------------|
D|---------------------------------------------------------------------------|
       v                   v

______________________________________________________________________________


SOLO:


D|---0-----------------------------------------------------------------------|
A|---0-------------------0---------------------------------------------------|
G|---5h7--5--4--5--4--2--4----2--0--2-----------2----------------------------|
D|---0----0--0--0--0--0--0----0--0--0-----0--0-------------------------------|
A|---0-----------------------------------------------------------------------|
D|---0-----------------------------------------------------------------------|


D|---0-----------------------------------------------------------------------|
A|---0-------------------0---------------------------------------------------|
G|---5h7--5--4--5--4--2--4----2--0--2----------------------------------------|
D|---0----0--0--0--0--0--0----0--0--0-----0--0--0----------------------------|
A|---------------------------------------------------------------------------|
D|---------------------------------------------------------------------------|


D|----------------0--0--0----------------------------------------------------|
A|----------------0--0--0----------------------------------------------------|
G|----0h2p0-----2----2--2------------2---------0h2p0-------------------------|
D|-----------0--------------0-0-0-0----0-0-0----------2-2--------------------|
A|---------------------------------------------------------------------------|
D|---------------------------------------------------------------------------|


D|------0--0--0--0--0--0-------0--0--0--0--0--0-------0--0--0--0-------------|
A|------0--0--0--0--0--0-------0--0--0--0--3--3-------3--3--2--2-------------|
G|------2--2--2--2--2--2-------2--2--2--2--2--2-------4--4--4--4-------------|
D|---0--0--0--0--0--0--0-------0--0--0--0--0--0-------0--0--0--0-------------|
A|---------------------------------------------------------------------------|
D|---------------------------------------------------------------------------|


D|--------------------0--0----------------------0---0--0--0--0--0--0--0--0--0-|
A|--------------------0--0----------------------0---0--0--0--0--0--0--0--0--0-|
G|--0--2--2--2--2--2--2--2--2--2--2--2--0-------0---0--0--0--0--0--0--0--0--2-|
D|-----0--0--0--0--0--0--0--0--0--0--0--0-------0---0--0--0--0--0--0--0--0--0-|
A|--------------------------------------0-------0-----------------------------|
D|--------------------------------------0---0---0-----------------------------|
                                                v

D|--0-----------0--0------------------5----5-------5----5--5--5--5--5--5--5--5--5-|
A|--------------0--0------------------7----7-------7----7--7--7--7--7--7--7--7--7-|
G|--------2--2--2--2--2--2--2---------7----7-------7----7--7--7--7--7--7--7--7--7-|
D|--------0--0--0--0--0--0--0-----0---0----0-------0----0--0--0--0--0--0--0--0--0-|
A|--------------------------------------------------------------------------------|
D|--------------------------------------------------------------------------------|


D|--0-----0------0--0--0--0--0--0--0--0--0--0--0-----------------------|
A|--9------------9--9--9--9--9--9--9--9--9--9--9-----------------------|
G|--7------------7--7--7--7--7--7--7--7--7--7--7-----------------------|
D|--0------------0--0--0--0--0--0--0--0--0--0--0-----------------------|
A|---------------------------------------------------------------------|
D|---------------------------------------------------------------------|


D|---0--0--0--0--0--0--0--0--7--7--7--7--7--7--0-----------------------------|
A|---7--7--7--7--7--7--7--7--7--7--7--7--7--7--9-----------------------------|
G|---5--5--5--5--5--5--5--5--5--5--5--5--5--5--7-----------------------------|
D|---0--0--0--0--0--0--0--0--0--0--0--0--0--0--0-----------------------------|
A|---------------------------------------------------------------------------|
D|---------------------------------------------------------------------------|


D|--0---0--0--0--0--0--0--0--0--0--0--0--0----------2---2----2---2----2---2--|
A|--9---9--9--9--9--9--9--9--9--9--9--9--9----------0---0----0---0----0---0--|
G|--7---7--7--7--7--7--7--7--7--7--7--7--7----4--5--4---4----4---4----4---4--|
D|--0---0--0--0--0--0--0--0--0--0--0--0--0----------0---0----0---0----0---0--|
A|---------------------------------------------------------------------------|
D|---------------------------------------------------------------------------|
    v

D|--4--4------4--4---4-----4---4-----4---4-----4---4------0------------------|
A|--0--0--0---0--0---0-----0---0-----0---0-----0---0---0---------0-----------|
G|--4--4--4---4--4---4-----4---4-----4---4-----4---4---------4---------------|
D|--0--0--0---0--0---0-----0---0-----0---0-----0---0-------------------------|
A|---------------------------------------------------------------------------|
D|---------------------------------------------------------------------------|


D|--5---5------4----------5---5-------4--------5---5-------4-----------------|
A|--0---0---0--0------0---0---0---0---0----0---0---0---0---0-----------------|
G|--4---4---4--4------4---4---4---4---4----4---4---4---4---4-----------------|
D|--0---0---0--0------0---0---0---0---0----0---0---0---0---0-----------------|
A|---------------------------------------------------------------------------|
D|---------------------------------------------------------------------------|


D|-----5---5-------4---------5---5---2----0---0----0-------------------------|
A|--0--0---0---0---0-----0---0---0---2----2---2----2-------------------------|
G|--4--4---4---4---4-----4---4---4---2----2---2----2------4---4--------------|
D|--0--0---0---0---0-----0---0---0---0----0---0----0------0---0--------------|
A|---------------------------------------------------------------------------|
D|---------------------------------------------------------------------------|


D|---------------------------------------------------------------------------|
A|------------------9---9--9----9--9----9--9---9-----9---9-------------------|
G|--4---4-----0---------7--7----7--7----7--7---7-----7---7-------------------|
D|--0---0-----0---------0--0----0--0----0--0---0-----0---0---0------0---0----|
A|---------------------------------------------------------------------------|
D|---------------------------------------------------------------0-----------|


D|---------------------------------------------------------------------------|
A|---------------------------------------------------------------------------|
G|---5p4--2--5---5--5--5--5--5--5--5--5--5--4--2--4--------------------------|
D|---0-------0---0--0--0--0--0--0--0--0--0--0--0--0--------------------------|
A|---------------------------------------------------------------------------|
D|---------------------------------------------------------------------------|


D|---------------------------------------------------------------------------|
A|---------------------3--3--3--3--3--3--3--3--0-----------------------------|
G|--9p7p5---7p5p4--7---4--4--4--4--4--4--4--4--0-----------------------------|
D|--0-------0------0---0--0--0--0--0--0--0--0--0-----------------------------|
A|---------------------------------------------------------------------------|
D|---------------------------------------------------------------------------|


D|---------------------------------------------------------------------------|
A|---------------------------------------------------------------------------|
G|--9p7p5--7p5p4--5p4p2--4----9------9---9---9-------9p7p5--7p5p4------------|
D|--0------0------0------0----0------0---0---0-------0------0----------------|
A|---------------------------------------------------------------------------|
D|---------------------------------------------------------------------------|


D|---------------------------------------------------------------------------|
A|---------------------------------------------------------------------------|
G|---9p7p5---7p5p4---9p7p5--4p2p0--9p7p5-----9p7p5---7-----9p7p5--7----------|
D|---0-------0-------0------0------0---------0-------0-----0------0----------|
A|---------------------------------------------------------------------------|
D|---------------------------------------------------------------------------|


D|-------------------------------------------------------------------------------|
A|-------------------------------------------------------------------------------|
G|--9p7p5--7-------9p7p5--7p5p4--9p7p5--7p5p4--9p7p5--7p5p4--9p7p5--7p5p4--7--9--|
D|--0------0-------0------0------0------0------0------0------0------0------0--0--|
A|-------------------------------------------------------------------------------|
D|-------------------------------------------------------------------------------|


D|-------------------------0---------------0------0--0--0--------------------|
A|--0------0--0----0-------0---------------0------0--0--0--------------------|
G|--9------9/10---11------11--------------11-----11-11-11--------------------|
D|--0------0--0----0---9-------9-------9---9------9--9--9--------------------|
A|--0------------------------------------------------------------------------|
D|--0------------------------------------------------------------------------|
    v

D|--0--0--0----10(10)\----0--0--0--0--0--0--11(11)\--11-11---11-11-----------|
A|--0--0--0---------------0--0--0--0--0--0------------0--0----0--0-----------|
G|-11-11-11--------------11-11-11-11-11-11-----------11-11---11-11-----------|
D|--9--9--9---------------9--9--9--9--9--9------------9--9----9--9-----------|
A|---------------------------------------------------------------------------|
D|---------------------------------------------------------------------------|


D|-11-11----11-11-----11--11--11--11--11--11---11--11--11--11--11--11--11--11--|
A|--0--0-----0--0------0---0---0---0---0---0----0---0---0---0---0---0---0---0--|
G|-11-11----11-11-----11--11--11--11--11--11---11--11--11--11--11--11--11--11--|
D|--9--9-----9--9------9---9---9---9---9---9----9---9---9---9---9---9---9---9--|
A|-----------------------------------------------------------------------------|
D|-----------------------------------------------------------------------------|


D|-11------11----11----11----11-----------------------0---0---0---0---0---0-----|
A|--0-------0-----0-----0-----0------2----------------0---0---0---0---0---0-----|
G|-11------11----11----11----11------0----------------2---2---2---2---2---2-----|
D|--9-------9-----9-----9-----9------0----------------0---0---0---0---0---0-----|
A|--0---------------------------------------------------------------------------|
D|--0--------------------------------------5-----0------------------------------|
    v                                v

D|-----0----0----0----0----0----0----0-------------------------------|
A|-----0----0----0----0----0----0----0-------------------------------|
G|-----2----2----2----2----2----2----2-------------------------------|
D|-----0----0----0----0----0----0----0-------------------------------|
A|-------------------------------------------------------------------|
D|-------------------------------------------------------------------|


D|---0-----0---0---0---0---0---0---0---------0-------------|
A|---0-----0---0---0---0---0---0---0---------0-------------|
G|---0-----0---0---0---0---0---0---0---------2-------------|
D|---0-----0---0---0---0---0---0---0---------0-------------|
A|---0-----0---0---0---0---0---0---0---------0-------------|
D|---0-----0---0---0---0---0---0---0---------0-------------|
     v

____________________________________________________________________________________


Verse 2



D|--0----0--0---0-----0--0--0--0--0--0--0--0--0--0--0------------------------|
A|--0----0--0---0-----0--0--0--0--0--0--0--0--0--0--0------------------------|
G|--2----2--2---2-----2--2--2--2--2--2--2--2--2--2--2------------------------|
D|--0----0--0---0-----0--0--0--0--0--0--0--0--0--0--0------------------------|
A|--0------------------------------------------------------------------------|
D|--0------------------------------------------------------------------------|
   But like the rain that is falling all over the land,


D|--0------0--0----0--0-----0--0--0--0--0----0---0---0---0-------------------|
A|--0------0--0----0--0-----0--0--0--0--0----0---0---0---0-------------------|
G|--2------2--2----2--2-----2--2--2--2--2----2---2---2---2-------------------|
D|--0------0--0----0--0-----0--0--0--0--0----0---0---0---0-------------------|
A|--0------------------------------------------------------------------------|
D|--0------------------------------------------------------------------------|
    She cools down my mind when she touches my hand.


D|-------------0-------------------------------------------------------------|
A|---------------------------------------------------------------------------|
G|--0--0--2----------------------------------2------0------------------------|
D|--0--0-------------------------------------0----------2--0-----------------|
A|-------------------------------------------0-------------------------------|
D|----------------0--0--0--0--0--0--0--0--0--0-------------------------------|
    Feels so good,                            Yeah so good.


D|-----0--0--0--0--0--0--0--0--0--0--0--0--0--0------------------------------|
A|-----0--0--0--0--0--0--0--0--0--0--0--0--0--0------------------------------|
G|-----2--2--2--2--2--2--2--2--2--2--2--2--2--2------------------------------|
D|-----0--0--0--0--0--0--0--0--0--0--0--0--0--0------------------------------|
A|---------------------------------------------------------------------------|
D|---------------------------------------------------------------------------|
  

D|--0--0--0--0--0--0--0--0--0---0--0---0--0--0--0----------------------------|
A|--0--0--0--0--0--0--0--0--0---0--0---0--0--0--0----------------------------|
G|--2--2--2--2--2--2--2--2--2---2--2---2--2--2--2----------------------------|
D|--0--0--0--0--0--0--0--0--0---0--0---0--0--0--0----------------------------|
A|--0------------------------------------------------------------------------|
D|--0------------------------------------------------------------------------|
  Just the smile that is spreading all over her face,


D|--0--0--0--0--0---0--0--0--0---0--0---0--0--0--0---------------------------|
A|--0--0--0--0--0---0--0--0--0---0--0---0--0--0--0---------------------------|
G|--2--2--2--2--2---2--2--2--2---2--2---2--2--2--2---------------------------|
D|--0--0--0--0--0---0--0--0--0---0--0---0--0--0--0---------------------------|
A|--0------------------------------------------------------------------------|
D|--0------------------------------------------------------------------------|
  Could warm up the room and set fire to the place.



D|-------------0-------------------------------------------------------------|
A|---------------------------------------------------------------------------|
G|--0--0--2----------------------------------2------0------------------------|
D|--0--0-------------------------------------0----------2--0-----------------|
A|-------------------------------------------0-------------------------------|
D|----------------0--0--0--0--0--0--0--0--0--0-------------------------------|
    Yes she could,                            You know it could.


D|-----0--0--0--0--0--0--------|
A|-----0--0--0--0--0--0--------|
G|-----2--2--2--2--2--2--------|
D|-----0--0--0--0--0--0--------|
A|-----------------------------|
D|-----------------------------|
   


_________________________________________________________________________________________



Outro



D|----0---------------------------------------------------------------------|
A|----0-------------------0-------------------------------------------------|
G|----5h7--5--4--5--4--2--4-----2--0--2-------------2-----------------------| 
D|----0----0--0--0--0--0--0-----0--0--0-----0---0---------------------------|
A|--------------------------------------------------------------------------|
D|--------------------------------------------------------------------------|


D|----0---------------------------------------------------------0----------------|
A|----0-------------------0-------------------------2---2------------------------|
G|----5h7--5--4--5--4--2--4-----2--0--2-----------------0---2---------0----------| 
D|----0----0--0--0--0--0--0-----0--0--0-----0---0-------------------------2--0---|
A|-------------------------------------------------------------------------------|
D|-------------------------------------------------------------------------------|


D|-------------------------------------------------------------------|
A|--5---3---2------5---3---2--------5---3---2------------------------|
G|--2--------------2----------2-----2-----------2--------------------|
D|--0--------------0----------------0--------------------------------|
A|-------------------------------------------------------------------|
D|-------------------------------------------------------------------|
    v              v

D|---0---------0---0---0---0---0-------0-----------------------------------|
A|---0---------0---0---0---0---0-------0-----------------------------------|
G|---0---------0---0---0---0---0-------2-----------------------------------|
D|---0---------0---0---0---0---0-------0-----------------------------------|
A|---0---------0---0---0---0---0-------0-----------------------------------|
D|---0---------0---0---0---0---0-------0------0----------------------------|
     v











***************************************
| x   Dead note
| g   Grace note
| (n) Ghost note
| h   Hammer-on
| p   Pull-off
| r   Release
| >   Accented note
| t   Tapping
| b   Bend
| br  Bend release
| pb  Pre-bend
| pbr Pre-bend release
| /   Slide up
| \   Slide down
| ~   Vibrato
| s   Slap
| P   Pop
| PM  Palm mute
| TR  Trill
| N   Tremolo

************************************

            
            
Suggest correction
Creating personal tab
Creating personal tab
You can edit any tab online and save it as your Personal.

You can edit, replace or remove any tab part or add personal notes – all changes will be seen only by you.

Personal tabs can be accessed anytime from any device, even offline.
Learn more »
Give kudos to tab author, rate the tab!
1 2 3 4 5
comments
print report bad tab
guest
You may want to rate the tab now too:
select rating
Wanna post a correction for this tab? Suggest correction