Oops, an error
Loading. Please wait.

Moonchild Tab

version 1
version 1

Whole song

Interactive

26,369 views 48 this week
3 commentsread comments
1 2 3 4 5
x 7
add to favorites
launch autoscroll
font size
0
reset
how to read this tab
guitar tuner
backing track
0:00
0:00
Autoscroll
slow
fast
+/-
esc
set tempo
stop
Author
Difficulty
intermediate
RORY GALLAGHER
Moonchild

e|-----------------------|-------------------------|-----------------------|
B|-----------------------|-------------------------|-----------------------|
G|-------5-------7-------|--9--------10----10------|-------5-------7-------|
D|-------7-------9-------|--10-------12----12------|-------7-------9-------|
A|--0---------0-------0--|--------0----------------|--0---------0-------0--|
E|-----------------------|-------------------------|-----------------------|

e|-------------------------|-----------------------|-------------------------|
B|-------------------------|-----------------------|-------------------------|
G|--9--------10----10------|-------5-------7-------|--9--------10----10------|
D|--10-------12----12------|-------7-------9-------|--10-------12----12------|
A|--------0----------------|--0---------0-------0--|--------0----------------|
E|-------------------------|-----------------------|-------------------------|

e|-----------------------|-------------------------|---------------------|
B|-----------------------|-------------------------|---------------------|
G|-------5-------7-------|--9--------10--------10/-|---------------------|
D|-------7-------9-------|--10-------12--------12/-|---------------------|
A|--0---------0-------0--|--------0----------------|---------2------3----|
E|-----------------------|-------------------------|--3------------------|

e|---------------------|-------------------|--10----------------|
B|---------------------|-------------------|--------------------|
G|---------------------|--7b---------------|--------------------|
D|---------2------5----|-------------------|--------------------|
A|--5------------------|-------------------|--------------------|
E|---------------------|-------------------|--------------------|

e|--------------------|-------------------------|--------------------------|
B|--x-----------------|-------------------------|--------------------------|
G|----5---------------|------4--5--7--4--5-4-2--|----5p4p2--2-4-5p4p2--4-5-|
D|--------------------|-------------------------|--------------------------|
A|--------------------|-------------------------|--------------------------|
E|--------------------|-------------------------|--------------------------|

e|-------------------|-------------------|------------------|-------------------|
B|-------------------|-------------------|------------------|-------------------|
G|--7b---------------|-------------------|------------------|-------------------|
D|-------------------|--2----------------|------------------|--3----------------|
A|-------------------|--2----------------|------------------|--3----------------|
E|-------------------|--0----------------|------------------|--1----------------|

e|-------------------||------------------------|-------------------------|
B|-------------------||------------------------|-------------------------|
G|--7----------------||*-------5-------7-------|--9--------10----10------|
D|--7----------------||*-------7-------9-------|--10-------12----12------|
A|--5----------------||---0---------0-------0--|--------0----------------|
E|-------------------||------------------------|-------------------------|

e|-----------------------|-------------------------|----------------------|
B|-----------------------|-------------------------|----------------------|
G|-------5-------7-------|--9--------10--------10/-|--9-------------10----|
D|-------7-------9-------|--10-------12--------12/-|--10------------12----|
A|--0---------0-------0--|--------0----------------|----------------------|
E|-----------------------|-------------------------|----------------------|

e|---------------------|----------------------|---------------------|
B|---------------------|----------------------|---------------------|
G|------9-----7--------|--9-------------10----|------9-----7--------|
D|------10----9--------|--10------------12----|------10----9--------|
A|---------------------|----------------------|---------------------|
E|---------------------|----------------------|---------------------|

e|----------------------|---------------------|----------------------|
B|----------------------|---------------------|----------------------|
G|--9-------------10----|------9-----7--------|--9-------------10----|
D|--10------------12----|------10----9--------|--10------------12----|
A|----------------------|---------------------|----------------------|
E|----------------------|---------------------|----------------------|

e|------------------3----|------------------|------------------|
B|------------------3----|------------------|------------------|
G|--9-----7----5----4----|------------------|------------------|
D|--10----9----7----5----|------------------|------------------|
A|------------------5----|------------------|------------------|
E|-----------------------|------------------|------------------|

e|--3----------------|--3----------------|-------------------|
B|--3----------------|--3----------------|-------------------|
G|--4----------------|--4----------------|--4----------------|
D|--5----------------|--5----------------|--5----------------|
A|--5----------------|--5----------------|--5----------------|
E|-------------------|-------------------|--3----------------|

e|-----------------------|-------------------------|-----------------------|
B|-----------------------|-------------------------|-----------------------|
G|-------5-------7-------|--9--------10----10------|-------5-------7-------|
D|-------7-------9-------|--10-------12----12------|-------7-------9-------|
A|--0---------0-------0--|--------0----------------|--0---------0-------0--|
E|-----------------------|-------------------------|-----------------------|

e|-------------------------|-------------------|------------------|
B|-------------------------|-------------------|------------------|
G|--9--------10--------10/-|--9----------------|------------------|
D|--10-------12--------12/-|--9----------------|------------------|
A|--------0----------------|--7----------------|------------------|
E|-------------------------|--7----------------|------------------|

e|-------------------|--------------------||-------------------|
B|-------------------|--------------------||--3----------------|
G|-------------------|--7----------------*||--4----------------|
D|--3----------------|--7----------------*||--5----------------|
A|--3----------------|--5-----------------||--5----------------|
E|--1----------------|--------------------||-------------------|

e|-------------------|----------------------------------|
B|--3----------------|--3p1p0-------3p1p0---------------|
G|--4----------------|--------3p2p0-------3p2p0-------3p|
D|--5----------------|--------------------------3p2p0---|
A|--5----------------|----------------------------------|
E|-------------------|----------------------------------|

e|--------------------------|-------------------------|----------------------|
B|------------3p1p0---------|-------------------------|----------------------|
G|--2p0---------------------|-------5/-7----9-----9---|----9---7----5--------|
D|------3p2p0---------------|-------7/-9----10----10--|----10--9----7--------|
A|--------------------------|--0----------------------|----------------------|
E|--------------------------|-------------------------|----------------------|

e|-----------------------|-------------------------|--1----------------|
B|-----------------------|-------------------------|--1----------------|
G|-------5-------7-------|--9-----9-----7--5----5/-|--2----------------|
D|-------7-------9-------|--10----10----9--7----7/-|--3----------------|
A|--0---------0-------0--|-------------------------|--3----------------|
E|-----------------------|-------------------------|-------------------|

e|------------------|--3----------------|-------------------|
B|------------------|--3----------------|--3----------------|
G|------------------|--4----------------|--4----------------|
D|------------------|--5----------------|--5----------------|
A|------------------|--5----------------|--5----------------|
E|------------------|-------------------|-------------------|

e|-----------------------|-------------------------|-----------------------|
B|-----------------------|-------------------------|-----------------------|
G|-------5-------7-------|--9--------10----10------|-------5-------7-------|
D|-------7-------9-------|--10-------12----12------|-------7-------9-------|
A|--0---------0-------0--|--------0----------------|--0---------0-------0--|
E|-----------------------|-------------------------|-----------------------|

e|-------------------------|--1----------------|--3----------------|
B|-------------------------|--1----------------|--3----------------|
G|--9--------10--------10/-|--2----------------|--4----------------|
D|--10-------12--------12/-|--3----------------|--5----------------|
A|--------0----------------|--3----------------|--5----------------|
E|-------------------------|-------------------|-------------------|

e|-------------------|-----------------------|-------------------------|
B|--3----------------|-----------------------|-------------------------|
G|--4----------------|-------5-------7-------|--9--------10----10------|
D|--5----------------|-------7-------9-------|--10-------12----12------|
A|--5----------------|--0---------0-------0--|--------0----------------|
E|-------------------|-----------------------|-------------------------|

e|-----------------------|-------------------------|--1----------------|
B|-----------------------|-------------------------|--1----------------|
G|-------5-------7-------|--9--------10--------10/-|--2----------------|
D|-------7-------9-------|--10-------12--------12/-|--3----------------|
A|--0---------0-------0--|--------0----------------|--3----------------|
E|-----------------------|-------------------------|-------------------|

e|--1----------------|------------------|--3--------0--------|-------------------|
B|--1----------------|------------------|--3--------0--------|--0----------------|
G|--2----------------|------------------|--4--------0--------|--0----------------|
D|--3----------------|------------------|--5--------2--------|--2----------------|
A|--3----------------|------------------|--5--------2--------|--2----------------|
E|-------------------|------------------|--------------------|-------------------|

e|-------------------------|----------------------|-----------------------|
B|-------------------------|----------------------|-----------------------|
G|-------5/-7----9-----9---|----9---7----5--------|-------5-------7-------|
D|-------7/-9----10----10--|----10--9----7--------|-------7-------9-------|
A|--0----------------------|----------------------|--0---------0-------0--|
E|-------------------------|----------------------|-----------------------|

e|----------------------|--------------------|--------------------|
B|----------------------|--------------------|--------------------|
G|--9---------10~-------|--12b---------------|--14b---------------|
D|--10------------------|--------------------|--------------------|
A|----------------------|--------------------|--------------------|
E|----------------------|--------------------|--------------------|

e|------------------------|--------------------------|
B|------------------------|--------------------------|
G|--14r-------12----------|--------------------------|
D|------------------14----|--12----------------------|
A|------------------------|--------15----14----15----|
E|------------------------|--------------------------|

e|----------------------------------------------|
B|----------------------------------------------|
G|----------------------------------------------|
D|----------------------------------------------|
A|--15-14-12--15-14-12--15-14-12-14-15-14-12-14-|
E|----------------------------------------------|

e|--------------------------------------|--------------------------------|
B|--------------------------------------|----------12----------12--------|
G|--------------------------------------|------12----------12------12----|
D|--------------------------------------|--12----------12----------------|
A|--15-14-12-14-15-14-12-14-15/-22------|--------------------------------|
E|--------------------------------------|--------------------------------|

e|------------------|------------------|---------------------|
B|------------------|------------------|---------------------|
G|------------------|------------------|---------------------|
D|------------------|------------------|------7--------------|
A|------------------|------------------|------7--------------|
E|------------------|------------------|--13/-5--------------|

e|------------------------------------------|--------------------------|
B|------------------------------------------|--------------------------|
G|--------------14--12--------------12b-----|------14--12--14--12b-----|
D|--12/-14--14----------14--12--14----------|--------------------------|
A|------------------------------------------|--------------------------|
E|------------------------------------------|--------------------------|

e|----------------------12--|--------------------|--------------------|
B|--------------------------|--15r---------------|--15r---------------|
G|--------------12/-14------|--------------------|--------------------|
D|--------------------------|--------------------|--------------------|
A|--------------------------|--------------------|--------------------|
E|--------------------------|--------------------|--------------------|

e|------------------------------|
B|--13----12--------------------|
G|--------------14----14--------|
D|------------------------------|
A|------------------------------|
E|------------------------------|

e|--------------------------------------------------|----------------------|
B|--15--13--12--15--13--12--15--13--12--15--13--12--|----------------------|
G|--------------------------------------------------|--14------------12----|
D|--------------------------------------------------|----------------------|
A|--------------------------------------------------|----------------------|
E|--------------------------------------------------|----------------------|

e|------------------------------------|----------------------------|
B|------------------------------------|----------------------------|
G|--11----12----14--------------------|--------------14------------|
D|--------------------14----10--------|--12----14------------------|
A|------------------------------------|----------------------------|
E|------------------------------------|----------------------------|

e|------------------|--1----------------|--3----------------|-------------------|
B|------------------|--1----------------|--3----------------|--3----------------|
G|------------------|--2----------------|--4----------------|--4----------------|
D|------------------|--3----------------|--5----------------|--5----------------|
A|------------------|--3----------------|--5----------------|--5----------------|
E|------------------|-------------------|-------------------|-------------------|

e|--------------------------------------|--------------------------------------|
B|--------1--------1--------1--------1--|--------1--------1--------1--------1--|
G|--0--2-----0--2-----0--2-----0--2-----|--0--2-----0--2-----0--2-----0--2-----|
D|--------------------------------------|--------------------------------------|
A|--------------------------------------|--------------------------------------|
E|--------------------------------------|--------------------------------------|

e|--------------------------------------|--------------------------------------|
B|--------1--------1--------1--------1--|--------1--------1--------1--------1--|
G|--0--2-----0--2-----0--2-----0--2-----|--0--2-----0--2-----0--2-----0--2-----|
D|--------------------------------------|--------------------------------------|
A|--------------------------------------|--------------------------------------|
E|--------------------------------------|--------------------------------------|

e|--1----------------|--3----------------|-------------------|
B|--1----------------|--3----------------|--3----------------|
G|--2----------------|--4----------------|--4----------------|
D|--3----------------|--5----------------|--5----------------|
A|--3----------------|--5----------------|--5----------------|
E|-------------------|-------------------|-------------------|

e|-----------------------|-------------------------|-----------------------|
B|-----------------------|-------------------------|-----------------------|
G|-------5-------7-------|--9--------10----10------|-------5-------7-------|
D|-------7-------9-------|--10-------12----12------|-------7-------9-------|
A|--0---------0-------0--|--------0----------------|--0---------0-------0--|
E|-----------------------|-------------------------|-----------------------|

e|-------------------------|--1----------------|------------------|
B|-------------------------|--1----------------|------------------|
G|--9--------10--------10/-|--2----------------|------------------|
D|--10-------12--------12/-|--3----------------|------------------|
A|--------0----------------|--3----------------|------------------|
E|-------------------------|-------------------|------------------|

e|--3--------0--------|-------------------|-------------------------|
B|--3--------0--------|--0----------------|-------------------------|
G|--4--------0--------|--0----------------|-------5/-7----9-----9---|
D|--5--------2--------|--2----------------|-------7/-9----10----10--|
A|--5--------2--------|--2----------------|--0----------------------|
E|--------------------|-------------------|-------------------------|

e|----------------------|-----------------------|-------------------------|
B|----------------------|-----------------------|-------------------------|
G|----9---7----5--------|-------5-------7-------|--9--------10--------10/-|
D|----10--9----7--------|-------7-------9-------|--10-------12--------12/-|
A|----------------------|--0---------0-------0--|--------0----------------|
E|----------------------|-----------------------|-------------------------|

e|-----------------------|-------------------------|-----------------------|
B|-----------------------|-------------------------|-----------------------|
G|-------5-------7-------|--9--------10----10------|-------5-------7-------|
D|-------7-------9-------|--10-------12----12------|-------7-------9-------|
A|--0---------0-------0--|--------0----------------|--0---------0-------0--|
E|-----------------------|-------------------------|-----------------------|

e|-------------------------|-----------------------|-------------------------|
B|-------------------------|-----------------------|-------------------------|
G|--9--------10----10------|-------5-------7-------|--9--------10----10------|
D|--10-------12----12------|-------7-------9-------|--10-------12----12------|
A|--------0----------------|--0---------0-------0--|--------0----------------|
E|-------------------------|-----------------------|-------------------------|

e|-----------------------|--------------------------||------------------|
B|-----------------------|--------------------------||------------------|
G|-------5-------7-------|--9--------10--------10/-*||------------------|
D|-------7-------9-------|--10-------12--------12/-*||------------------|
A|--0---------0-------0--|--------0-----------------||------------------|
E|-----------------------|--------------------------||------------------|

e|------------------|--3----------------|--3----------------|-------------------|
B|------------------|--3----------------|--3----------------|-------------------|
G|------------------|--4----------------|--4----------------|--4----------------|
D|------------------|--5----------------|--5----------------|--5----------------|
A|------------------|--5----------------|--5----------------|--5----------------|
E|------------------|-------------------|-------------------|--3----------------|

e|-----------------------|-------------------------|-----------------------|
B|-----------------------|-------------------------|-----------------------|
G|-------5-------7-------|--9--------10----10------|-------5-------7-------|
D|-------7-------9-------|--10-------12----12------|-------7-------9-------|
A|--0---------0-------0--|--------0----------------|--0---------0-------0--|
E|-----------------------|-------------------------|-----------------------|

e|-------------------------||--------------------|------------------|
B|-------------------------||--------------------|------------------|
G|--9--------10--------10/-||*--9----------------|------------------|
D|--10-------12--------12/-||*--9----------------|------------------|
A|--------0----------------||---7----------------|------------------|
E|-------------------------||---7----------------|------------------|

e|-------------------|-------------------|-----------------------|
B|-------------------|-------------------|-----------------------|
G|-------------------|--7----------------|-------5-------7-------|
D|--3----------------|--7----------------|-------7-------9-------|
A|--3----------------|--5----------------|--0---------0-------0--|
E|--1----------------|-------------------|-----------------------|


                                                                              2x
e|-------------------------|-----------------------|--------------------------||
B|-------------------------|-----------------------|--------------------------||
G|--9--------10----10------|-------5-------7-------|--9--------10--------10/-*||
D|--10-------12----12------|-------7-------9-------|--10-------12--------12/-*||
A|--------0----------------|--0---------0-------0--|--------0-----------------||
E|-------------------------|-----------------------|--------------------------||

e|--10/-12--------------|------------------|--12-12-12-12-12-12-12-12---------|
B|----------------------|------------------|----------------------------------|
G|----------------------|------------------|----------------------------------|
D|----------------------|------------------|----------------------------------|
A|----------------------|------------------|----------------------------------|
E|----------------------|------------------|----------------------------------|

e|--10r-----10--------------------------------------|
B|------13------13--12--10--12--13--12--10------10--|
G|------------------------------------------12------|
D|--------------------------------------------------|
A|--------------------------------------------------|
E|--------------------------------------------------|

e|-----------------------------------------------|
B|-------------10-------------10-------------10--|
G|--12--9--12------12--9--12------12--9--12------|
D|-----------------------------------------------|
A|-----------------------------------------------|
E|-----------------------------------------------|

e|--------10----------------------------|-----------------------|
B|--12----------13--12--10--12--10------|--10--8--10------------|
G|--------------------------------------|-----------------------|
D|--------------------------------------|-----------------------|
A|--------------------------------------|-----------------------|
E|--------------------------------------|-----------------------|

e|-----------------------------------------|-------------------|
B|-----------------------------------------|-------------------|
G|----------12--11--9--11--12--11--9--7----|-------------------|
D|------10---------------------------------|-------------------|
A|--12-------------------------------------|----------3--------|
E|-----------------------------------------|-------------------|

e|----------------------|----------------------------|
B|----------------------|----------------------------|
G|----------------------|---------------------9--12--|
D|----------------------|-----------------12---------|
A|--2----3----5----7----|--9----10-------------------|
E|----------------------|----------------------------|

e|-----------------------------------------------|
B|-----------------------------------------------|
G|--11--9--11--12--11--9--11--12--11--9--11--12--|
D|-----------------------------------------------|
A|-----------------------------------------------|
E|-----------------------------------------------|

e|----------------------------------------|----------------------------------|
B|----------------------------------------|--------------------------12--15--|
G|--11--9--11--12--11--9--11--9--11-------|------------------12--14----------|
D|-----------------------------------9----|----------12--14------------------|
A|----------------------------------------|----------------------------------|
E|----------------------------------------|----------------------------------|

e|--------15--------------|--------------------|
B|--15b---------15b-------|----------------15r-|
G|------------------------|--------------------|
D|------------------------|--------------------|
A|------------------------|--------------------|
E|------------------------|--------------------|

e|------15------14------12--------------------------|
B|------------------------------15------13------12--|
G|--14------14------14------14------14------14------|
D|--------------------------------------------------|
A|--------------------------------------------------|
E|--------------------------------------------------|

e|------------------------------------|
B|------10------12------13------------|
G|--14------14------14------14~-------|
D|------------------------------------|
A|------------------------------------|
E|------------------------------------|

e|------15------15------15------15------15------15--|
B|----------12------13------15------13------12------|
G|--14----------------------------------------------|
D|--------------------------------------------------|
A|--------------------------------------------------|
E|--------------------------------------------------|

e|--------------------------------------------------|
B|--------------------------------------------------|
G|--14--12------12--11------12--11--------------14--|
D|----------14----------14--------------12--14------|
A|----------------------------------14--------------|
E|--------------------------------------------------|

e|--------------------------------------------------|
B|--------------13----------------------------------|
G|--14--12--14------14--12--------------------------|
D|--------------------------14--14/-16--12------12--|
A|------------------------------------------15------|
E|--------------------------------------------------|

e|------------------------------------|-----------------------------------|
B|------------------------------------|-----------------------------------|
G|------------------------------------|-----------------12------11--------|
D|------------------------------------|--------7----14------14------14----|
A|--15--14--12--14--15--14--12/-------|--------7--------------------------|
E|------------------------------------|--12/---5--------------------------|

Tabbed by Ed_Hunter

************************************

| /  Slide up
| b  Bend
| x  Dead note
| p  Pull-off
| *  Natural harmonic
| ~  Vibrato
| r  Release

************************************
Suggest correction
comments
print report bad tab
3 comments total.
0 reply
McClean05 46 Mar 03, 2006 07:35 AM

Very Impressive!! well done.

0 reply
The Fourth 10 Aug 30, 2014 01:29 PM

Lack of formatting.

0 reply
Xristospb 10 Aug 30, 2014 11:29 PM

Lack of formatting.

guest
You may want to rate the tab now too:
select rating
Wanna post a correction for this tab? Suggest correction