Oops, an error
Loading. Please wait.

Tattood Lady bass

version 2
version 2

Whole song

Interactive

267 views 1 this week
no commentswrite comment
1 2 3 4 5
3 more votes to show rating
add to favorites
×
Save as Personal and add changes to this tab that will be seen only by you. Learn more ›
×
You can save this tab as Personal to edit and correct it or add notes. All changes will be seen only by you. Learn more »
launch autoscroll
font size
0
reset
guitar tuner
backing track
0:00
0:00
edit
Autoscroll
slow
fast
+/-
esc
set tempo
stop
Author
Difficulty
Tattood Lady
This (live) version taken from Rory Gallaghers Irish Tour 1974
Bassist Gerry McAvoy. Tabbed by bass50611
Any comments email bass254@btinternet.com.
Great rock track, one of my favourites, have fun especially in solo 2

Verse:
G|-----------------------------------------------------------------------|
D|-----------------------------------------------------------------------|
A|-5/7-7-777-------------5-5-555---7-7-777---5h7-7-777-----------5-5-555-|
E|--------------8-8-888---------------------------------8-8-888----------|

G|--------------------------------------------------------------------|
D|--------------------------------------------------------------------|
A|-7-7-7-2-4-5---7-7-777----------5-5-555---7---------2-3-5---7-7-777-|
E|-----------------------8-8-888--------------0-2-3-5-----------------|

G|-----------------------------------------------------------------|
D|----------------------------7-7----7-7---------------------------|
A|---------5-5-555---7-7-777-----9-7----9-7---7-7----7-7----7-7----|
E|-8-8-888---------------------------------------9-7----9-7----9-7-|
7
G|-----------------------------------------------------------------|
D|---------------7-7----7-7----------------------------------------|
A|-----7-7-7-77-----9-7----9-7---7-7----7-7------------------------|
E|-9-7------------------------------9-7----9-7---99999999-77777777-|

Bridge 1:                                         (Play these as quavers)
G|------------------------------------------------------------------------|
D|-7-----------6-----99999999---------------------------------------------|
A|-------4--------------------12-----------11-----14-14-14-14-14-14-14-14-|
E|-----------------------------------9------------------------------------|

Solo 1:
G|--------------------------------------------------------|
D|--------------------------------------------------------|
A|---7-7-777----------5-5-555---7---------2-3-5---7-7-777-|
E|-----------8-8-888--------------0-2-3-5-----------------|

G|-----------------------------------------------------------------|
D|----------------------------7-7----7-7---------------------------|
A|---------5-5-555---7-7-777-----9-7----9-7---7-7----7-7----7-7----|
E|-8-8-888---------------------------------------9-7----9-7----9-7-|
7
G|-----------------------------------------------------------------|
D|---------------7-7----7-7----------------------------------------|
A|-----7-7-7-77-----9-7----9-7---7-7----7-7------------------------|
E|-9-7------------------------------9-7----9-7---99999999-77777777-|

Bridge 2:
G|-----------------------------------------------------------|
D|--------------------------------------------------99999999-|
A|-------4------------------------------4--------------------|
E|-5-----------4-----77777777-----5-----------4--------------|

Repeat Verse & Bridge 2, and then first part of verse:



Solo 2: (plus your own variations both up and down the neck)
G|------------------------------------------------------------------------|
D|------------------------------------------------------------------------|
A|-7-7-777----------5-5-555---7---------2-3-5---7-7-777-----------5-5-555-|
E|----------8-8-888--------------0-2-3-5------------------8-8-888---------|

G|--------------------------------------------------------|
D|--------------------------------------------------------|
A|-7-7-7-2-4-5---7-7-777---------5-5-555---7--------2-3-5-|
E|-----------------------8-8-888-------------0-2-3-5------|

Repeat Solo 2 to Outro:

Outro:
G|----------------------------------------------------------------------|
D|----------------------22222222-22222----------------------------------|
A|-7------3------5--------------------4-2--------------------77777777-7-|
E|---------------------------------------4-00000000-00000000------------|

(The Outro Can Be Varied)
Suggest correction
Creating personal tab
Creating personal tab
You can edit any tab online and save it as your Personal.

You can edit, replace or remove any tab part or add personal notes – all changes will be seen only by you.

Personal tabs can be accessed anytime from any device, even offline.
Learn more »
Give kudos to tab author, rate the tab!
1 2 3 4 5
comments
print report bad tab
guest
You may want to rate the tab now too:
select rating
Wanna post a correction for this tab? Suggest correction