Oops, an error
Loading. Please wait.

Llegaremos A Tiempo tab

by Rosana
680 views 1 this week
no commentswrite comment
1 2 3 4 5
2 more votes to show rating
add to favorites
×
Save as Personal and add changes to this tab that will be seen only by you. Learn more ›
×
You can save this tab as Personal to edit and correct it or add notes. All changes will be seen only by you. Learn more »
launch autoscroll
font size
0
reset
how to read this tab
guitar tuner
edit
Autoscroll
slow
fast
+/-
esc
set tempo
stop
Poner la cejilla en el primer traste.

Introducción (punteo)

    RE               SOL                  RE 
|--2p0---|--------------0------------|------------|
|--3---3-|-----------3-----------3---|-3---3---3--|
|-2------|-----0---0--------0------0-|---2---2----|
|--------|---0---0--------0---0------|-0----------|
|--------|---------------------------|------------|
|--------|-3------------0------------|------------|


   RE          SOL           LA           RE        RE 
|--2p0---|-------------|-------------|-----------|--2p0---|
|--3---3-|-3---------3-|-2-------2p3-|-3---3---3-|--3---3-|
|-2------|-----0---0---|-----2-------|---2---2---|-2------|
|--------|---0---0-----|---2---2-----|-0---------|--------|
|--------|-------------|-0-----------|-----------|--------|
|--------|-3-----------|-------------|-----------|--------|


             SOL                 RE            LA 
|--------------0-------3---|-2---------2-|-0-----------|
|-----------3------------0-|-----3---3---|-----2---2p3-|
|-----0---0--------0-------|---2---2-----|---2---2-----|
|---0---0--------0---0-----|-0-----------|-2-----------|
|--------------------------|-------------|-------------|
|-3------------0-----------|-------------|-------------|


           RE           RE 
|----------0-----2-----|-2-|
|-3---3------3-----3---|-3-|
|---2---2------2-----2-|-2-|
|-0--------------------|-0-|
|----------------------|-0-|
|----------------------|-0-|


                 A                       Bm
Si te arrancan al niño, que llevamos por dentro,
                G                      D
Si te quitan la teta y te cambian de cuento
                  A                      Bm
No te tragues la pena, porque no estamos muertos
             G   D               A         D
Llegaremos a tiempo, llegaremos a tiempo.


                   A                       Bm
Si te anclaran las alas, en el muelle del viento

                     G                    D
Yo te espero un segundo en la orilla del tiempo
                  A                   Bm
Llegarás cuando vayas más allá del intento
             G    D               A
Llegaremos a tiempo, llegaremos a tiempo.


         Bm                   G
Si te abrazan las paredes desabrocha el corazón
         D                     A
No permitas que te anuden la respiración.
       Bm                      G
No te quedes aguardando a que pinte la ocasión
       D                          A
Que la vida son dos trazos y un borrón.


       D                      G
Tengo miedo que se rompa la esperanza,
       D                    A
Que la libertad se quede sin alas,
       D                        G
Tengo miedo que haya un día sin mañana,
       Bm                               G
Tengo miedo de que el miedo, te eche un pulso y pueda más
      D            A          D
No te rindas, no te sientes a esperar.


D G D     D Asus A D   D G D A D  pausa

                A                     Bm
Si robaran el mapa del país de los sueños
          G                     D
Siempre queda el camino que te late por dentro
       A                       Bm
Si te caes te levantas, si te arrimas te espero
             G    D                A      D
Llegaremos a tiempo, llegaremos a tiempo.

       Bm                   G
Mejor lento que parado, desabrocha el corazón
       A                           D
No permitas que te anuden la imaginación
       Bm                      G
No te quedes aguardando a que pinte la ocasión
       D                         A
Que la vida son dos trazos y un borrón

      D                         G
Tengo miedo que se rompa la esperanza
       D                       A
Que la libertad se quede sin alas

        D                        G
Tengo miedo que haya un día sin mañana
       Bm                                G
Tengo miedo de que el miedo, te eche un pulso y pueda más
        D            A           D
No te rindas no te sientes a esperar

               D               G
Sólo pueden contigo, si te acabas rindiendo
            Bm                  A
Si disparan por fuera y te matan por dentro
               D                  G
Llegarás cuando vayas, más allá del intento
            Bm      A           D         Asus A
Llegaremos a tiempo, llegaremos a tiempo
             D
Sólo pueden contigo......


?Todos podemos llegar a tiempo, no nos rindamos jamás? Noelia

Cualquier duda que tengan pueden contactar en nofernand@

            
            
Suggest correction
Creating personal tab
Creating personal tab
You can edit any tab online and save it as your Personal.

You can edit, replace or remove any tab part or add personal notes – all changes will be seen only by you.

Personal tabs can be accessed anytime from any device, even offline.
Learn more »
Give kudos to tab author, rate the tab!
1 2 3 4 5
comments
print report bad tab
guest
Wanna post a correction for this tab? Suggest correction