Oops, an error
Loading. Please wait.

Tormenta De Arena tab

by Rosana
135 views 1 this week
no commentswrite comment
1 2 3 4 5
3 more votes to show rating
add to favorites
×
Save as Personal and add changes to this tab that will be seen only by you. Learn more ›
×
You can save this tab as Personal to edit and correct it or add notes. All changes will be seen only by you. Learn more »
launch autoscroll
font size
0
reset
how to read this tab
guitar tuner
edit
Autoscroll
slow
fast
+/-
esc
set tempo
stop
Cejilla en 3er o 4º traste, suena bien de las dos formas ;).
En la actuación de la cual fue transcrita, Rosana la canta con la cejilla
en el cuarto. Espero que les guste :D


  LAm     Punteo             REm         SOL          Punteo
|-----|-----------------|---0-0/1-0-|-----------|-----------------|
|---1-|-1/3-3/5-3-1-1/3-|--3---3----|-3-1-0---0-|-3/5--3-1/3--1---|
|--2--|-----------------|-2---------|--------0--|-----------------|
|-2---|-----------------|0----------|-------0---|-----------------|
|0----|-----------------|-----------|-0-0-2-----|-----------------|
|-----|-----------------|-----------|-----------|-----------------|

      DO          SOL 
|--------------|-------|
|-------1----1-|----0--|
|-----0-----0--|---0---|
|---2------2---|--0----|
|-3-------3----|-2-----|
|--------------|-------|


          No le pidas a Dios         que me cambie por nadie
     LAm          REm           SOL           DO         SOL 
|---------|----0--0/1--0-|--------------|--------------|-------|
|----1----|---3----3-----|-3-1-0---0----|-------1----1-|----0--|
|---2-2-2-|--2-----------|--------0-0-0-|-----0-----0--|---0---|
|--2---2--|-0------------|-------0---0--|---2------2---|--0----|
|-0-------|--------------|-0-0-2--------|-3-------3----|-2-----|
|---------|--------------|--------------|--------------|-------|


          No se secan al aire          cicatrices de amor
    LAm          REm            SOL           DO          SOL 
|---------|----0--0/1--0-|--------------|--------------|-------|
|----1----|---3----3-----|-3-1-0---0----|-------1----1-|----0--|
|---2-2-2-|--2-----------|--------0-0-0-|-----0-----0--|---0---|
|--2---2--|-0------------|-------0---0--|---2------2---|--0----|
|-0-------|--------------|-0-0-2--------|-3-------3----|-2-----|
|---------|--------------|--------------|--------------|-------|


        No le pidas a Dios           que re-escriba la historia
    LAm          REm            SOL          DO          SOL 
|---------|----0--0/1--0-|--------------|--------------|-------|
|----1----|---3----3-----|-3-1-0---0----|-------1----1-|----0--|
|---2-2-2-|--2-----------|--------0-0-0-|-----0-----0--|---0---|
|--2---2--|-0------------|-------0---0--|---2------2---|--0----|
|-0-------|--------------|-0-0-2--------|-3-------3----|-2-----|
|---------|--------------|--------------|--------------|-------|


       Te regalo la gloria            con puñales de amor
    LAm         REm            SOL             DO        SOL 
|---------|----0--0/1--0-|--------------|--------------|-------|
|----1----|---3----3-----|-3-1-0---0----|-------1----1-|----0--|
|---2-2-2-|--2-----------|--------0-0-0-|-----0-----0--|---0---|
|--2---2--|-0------------|-------0---0--|---2------2---|--0----|
|-0-------|--------------|-0-0-2--------|-3-------3----|-2-----|
|---------|--------------|--------------|--------------|-------|


LAm                                        FA 
Pido a Dios el aire que te libre de esta pena
LAm                                       MI 
Pido a Dios que ponga besos cuando yo te duela
LAm                                   FA 
Pideme que pida a Dios agua de las piedras
LAm                                    MI 
Para beber en el desierto donde tu me dejas

Una tormenta de arena


REm
Que me arranca de un soplo la vida
LAm                 SOL 
Que me hiela si tu no me abrigas
FA                               MI 
Que me arranca del cielo de un golpe mortal
REm
Que me arrastra me empuja y me quema
LAm                           SOL 
Que me abraza en un fuego de arena
FA                                MIM*
Y me deja sin ganas de resucitar
                     LAm*
Que me hunde y te vas

    MIM*            LAm*
|-------0--|  |-------0-----|
|----0--0--|  |----1---1----|
|---1---1--|  |---2-2---2---|
|--2----2--|  |--2----------|
|-2--------|  |-0-----------|
|----------|  |-------------|


LAm           REm  SOL            DO    SOL 
No se mata el amor ni se muere de viejo
LAm            REm SOL             DO      SOL 
Con pecados añejos sólo duele el dolor
FA           MI    LAm
No le pidas a Dios que me lleve tan lejos

  O tendrás que nadar en             esta ruina de amor
   LAm          REm             SOL         DO           SOL 
|---------|----0--0/1--0-|-3-1-0--------|--------------|-------|
|----1----|---3----3-----|---------0----|-------1----1-|----0--|
|---2-2-2-|--2-----------|--------0-0-0-|-----0-----0--|---0---|
|--2---2--|-0------------|-------0---0--|---2------2---|--0----|
|-0-------|--------------|-0-0-2--------|-3-------3----|-2-----|
|---------|--------------|--------------|--------------|-------|


LAm                                      FA 
Pido a Dios el aire que te libre de esta pena
LAm                                       MI 
Pido a Dios que ponga besos cuando yo te duela
LAm                                   FAm
Pideme que pida a Dios agua de las piedras
LAm                                    MI 
Para beber en el desierto donde tu me dejas

Una tormenta de arena


REm
Que me arranca de un soplo la vida
LAm                 SOL 
Que me hiela si tu no me abrigas
FA                                    MI 
Que me arranca del cielo de un golpe mortal
REm
Que me arrastra me empuja y me quema
LAm                           SOL 
Que me abraza en un fuego de arena
FA                              MIM*
Y me deja sin ganas de resucitar
                      LAm*
Que me hunde y te vas

     MIM*           LAm*
|-------0--|  |-------0-----|
|----0--0--|  |----1---1----|
|---1---1--|  |---2-2---2---|
|--2----2--|  |--2----------|
|-2--------|  |-0-----------|
|----------|  |-------------|


Cari, te la dedico ^^.Sabes que esta canción siempre llevará
tu acento (humf). Te quiero!

            
            
Suggest correction
Creating personal tab
Creating personal tab
You can edit any tab online and save it as your Personal.

You can edit, replace or remove any tab part or add personal notes – all changes will be seen only by you.

Personal tabs can be accessed anytime from any device, even offline.
Learn more »
Give kudos to tab author, rate the tab!
1 2 3 4 5
comments
print report bad tab
guest
Wanna post a correction for this tab? Suggest correction