Oops, an error
Loading. Please wait.

Yo Pa' Ti No Estoy tab

by Rosana
118 views 1 this week
no commentswrite comment
1 2 3 4 5
3 more votes to show rating
add to favorites
×
Save as Personal and add changes to this tab that will be seen only by you. Learn more ›
×
You can save this tab as Personal to edit and correct it or add notes. All changes will be seen only by you. Learn more »
launch autoscroll
font size
0
reset
how to read this tab
guitar tuner
edit
Autoscroll
slow
fast
+/-
esc
set tempo
stop
HOLA!  YA REVISE Y LA VERSION CORRECTA ES LA QUE ESTA EN C#m.  
ESTO QUE LES PONGO AQUI ES LA INTRO.  Y LLEVA PEQUEÑOS RIFFS 
DURANTE LA CANCION PERO NO ES NADA QUE VALGA LA PENA TOCAR 
LA VERDAD.

---------0-------------------------
-----1-2---2--4----2-1-------------
-1-3---------4-4-2-----------------
-----------------------------------
-----------------------------------
-----------------------------------

---------0-------------------------
-----1-2---2--4--------------------
-1-3---------4-4-2-1---------------
-----------------------------------
-----------------------------------
-----------------------------------

---------0-------------------------
-----1-2---2--4----2-1-------------
-1-3---------4-4-2-----------------
-----------------------------------
-----------------------------------
-----------------------------------

---------0-------------------------
-----1-2---2--4--------------------
-1-3---------4-4-2-----------------
-----------------------------------
-----------------------------------
-----------------------------------

---4-4---4------2-2---2------------
---5-5---5------4-4---4------------
-6-----6------4-----4--------------
-----------------------------------
-----------------------------------
-----------------------------------

---4-4---4------2-2-2-2-2-2/4------
---5-5---5------4-4-4-4-4-4/5------
-6-----6------4--------------------
-----------------------------------
-----------------------------------
-----------------------------------

---4-4---4------2-2---2------------
---5-5---5------4-4---4------------
-6-----6------4-----4--------------
-----------------------------------
-----------------------------------
-----------------------------------

---4-4---4------2-2-2-2/5-5/4------
---5-5---5------4-4-4-4/7-7/5------
-6-----6---------------------------
-----------------------------------
-----------------------------------
-----------------------------------

Que te valla bonito...

Y AL FINAL, ES IGUAL QUE LA INTRO NADA MAS QUE LA ULTIMA VEZ 
QUE SE TOCA, SE TOCA ASI:

---------0-------------------------
-----1-2---2--4-------------1-2----
-1-3---------4-4-2------1-3--------
-----------------------------------
-----------------------------------
-----------------------------------

JAJAJA!  TE LA DEDICO A TI, YA SABES QUIEN ERES!
Suggest correction
Creating personal tab
Creating personal tab
You can edit any tab online and save it as your Personal.

You can edit, replace or remove any tab part or add personal notes – all changes will be seen only by you.

Personal tabs can be accessed anytime from any device, even offline.
Learn more »
Give kudos to tab author, rate the tab!
1 2 3 4 5
comments
print report bad tab
guest
Wanna post a correction for this tab? Suggest correction