Oops, an error
Loading. Please wait.

Created To Kill tab

1,093 views 1 this week
no commentswrite comment
1 2 3 4 5
3 more votes to show rating
add to favorites
×
Save as Personal and add changes to this tab that will be seen only by you. Learn more ›
×
You can save this tab as Personal to edit and correct it or add notes. All changes will be seen only by you. Learn more »
launch autoscroll
font size
0
reset
how to read this tab
guitar tuner
edit
Autoscroll
slow
fast
+/-
esc
set tempo
stop
Author
Difficulty
Rose Funernal
Created to Kill off of their album The Resting Sonata.
Tabbed by me, all ear. It sounds pretty right to me but, some stuff may be a little off 
because it's hard to hear since their tuning is so low.
Drop G tuning
GDGCEA

T - Tremelo
* - Palm muted
X - number of times
H - Hammer on
P - Pull off

(0:00-0:26)
|----------------------------------------------------------------------------|
|----------------------------------------------------------------------------|
|----------------------------------------------------------------------------|
|-------------------------------------7-7-7----------------------------------|
|-----------------8-8-8--7-7-7-8-8-8-----------------------------------------|
|0-8-8-8--10-10-10-----------------------------8-8-8--12-12-12--11-11-11-----|
 T T T  T  T  T   T T T  T T T T T T T T T   T T T  T  T  T   T  T  T

|--------------------------------------------------------------------|
|--------------------------------------------------------------------|
|--------------------------------------------------------------------|
|-------------------------------------7-7-7--8-8-8--7-7-7--5--3-3-3--|
|-----------------8-8-8--7-7-7--8-8-8--------------------------------|
|0-8-8-8--10-10-10---------------------------------------------------|2X
 T T T  T  T  T  T T T  T T T  T T T  T T T  T T T  T T T  T  T T T

(0:27-0:36)
|-----------------------------------------|
|-----------------------------------------|
|-----------------------------------------|
|-----------------------------------------|
|-----5---8------5---7--------------------|
|0-0----0----0-0---0-----0-0-0-0-0-0------|
 * *    *    * *   *     * * * * * *

|--------------------------------------|
|--------------------------------------|
|--------------------------------------|
|--------------------------------------|
|-----5---8-----5---7----5h8p5--4h7p4--|
|0-0----0---0-0---0---0----------------|
 * *    *   * *   *   *


|-----------------------------------------|-------------------------|
|-----------------------------------------|-------------------------|
|-----------------------------------------|-------------------------|
|-----------------------------------------|-------------------------|
|-----5---8------5---7--------------------|---8-8-8----7-7-7--8-8-8-|
|0-0----0----0-0---0-----0-0-0-0-0-0------|-8--------8--------------|
 * *    *    * *   *     * * * * * *        * T T T  * T T T  T T T


(0:37-0:54)
|-----------------------------------------|
|-----------------------------------------|
|-----------------------------------------|
|-----------------------------------------|
|-----5---8------5---7--------------------|
|0-0----0----0-0---0-----0-0-0-0-0-0------|
 * *    *    * *   *     * * * * * *

|--------------------------------------|
|--------------------------------------|
|--------------------------------------|
|--------------------------------------|
|-----5---8-----5---7----5h8p5--4h7p4--|
|0-0----0---0-0---0---0----------------|
 * *    *   * *   *   *


|-----------------------------------------|-------------------------|
|-----------------------------------------|-------------------------|
|-----------------------------------------|-------------------------|
|-----------------------------------------|-------------------------|
|-----5---8------5---7--------------------|---8-8-8----7-7-7--8-8-8-|
|0-0----0----0-0---0-----0-0-0-0-0-0------|-8--------8--------------|
 * *    *    * *   *     * * * * * *        * T T T  * T T T  T T T

(0:55-1:26)
|------------------------------------------------------------------|
|------------------------------------------------------------------|
|------------------------------------------------------------------|
|---------------------------------10-10-10-10--8-8-8--7-7-7--5-5-5-|
|5-5-5-5-5-5-5-5-5-5-5-5-5--7-7-7----------------------------------|
|0-0-0-0-0-0-0-0-0-0-0-0-0-----------------------------------------|
                            T T T T  T  T  T   T T T  T T T  T T T

|------------------------------------------------------------|
|------------------------------------------------------------|
|------------------------------------------------------------|
|----------------------------------8-8-8-8--5-5-5-5--7-7-7-7-|
|5-5-5-5-5-5-5-5-5-5-5-5-5--7-7-7----------------------------|
|0-0-0-0-0-0-0-0-0-0-0-0-0-----------------------------------|
                            T T T  T T T T  T T T T  T T T T

|--------------------------------------------------------------------------|
|--------------------------------------------------------------------------|
|--------------------------------------------------------------------------|
|---------------------12-12-12-12--10-10-10-10--7-7-7--8-8-8--7-7-7--3-3-3-|
|5-5-5-5-5-5-5-5-5-5-------------------------------------------------------|
|0-0-0-0-0-0-0-0-0-0-------------------------------------------------------|
                      T  T  T  T   T  T  T  T   T T T  T T T  T T T  T T T

|-------------------------------------------------------------------------|
|-------------------------------------------------------------------------|
|-------------------------------------------------------------------------|
|---------------------12-12-12-12--10-10-10-10--7-7-7-7-7--5-5-5--7-7-7-7-|
|5-5-5-5-5-5-5-5-5-5------------------------------------------------------|
|0-0-0-0-0-0-0-0-0-0------------------------------------------------------|
                      T  T  T  T   T  T  T  T   T T T T T  T T T  T T T T


(1:27-1:46)
|-------------------------------------|
|-------------------------------------|
|-------------------------------------|
|-------------------------------------|
|-------------------------------------|
|0-0-0-0-0--0--0-0-0-0-0--0--0-0-0--0-|
 * * * * *     * * * * *     * * *


|------------------------------------------------------|
|------------------------------------------------------|
|------------------------------------------------------|
|------------------------------------------------------|
|----------------5------------8---------7------------4-|4X
|0-0-0-0-0-0-0-0---0-0-0-0-0-----0-0-0-----0-0-0-0-0---|
 * * * * * * * *   * * * * *     * * *     * * * * *

(1:47-2:03)
|------------|-----------------|---------|--------------|
|------------|-----------------|---------|--------------|
|------------|-----------------|---------|--------------|
|------------|-----------------|---------|--------------|
|------------|-----------------|---------|--------------|
|0-0-0-0-0-0-|-0-0-0-0-0-0-0-0-|-0-0-0-0-|-0-0-0-0-0-0--|2X
 * * * * * *   * * * * * * * *   * * * *   * * * * * *

|------------|
|------------|
|------------|
|------------|
|------------|
|0-0-0-0-0-0-|
 * * * * * *


|------------|-----------------|---------|--------------|
|------------|-----------------|---------|--------------|
|------------|-----------------|---------|--------------|
|------------|-----------------|---------|--------------|
|0-0-0-0-0-0-|-0-0-0-0-0-0-0-0-|-0-0-0-0-|-0-0-0-0-0-0--|
|0-0-0-0-0-0-|-0-0-0-0-0-0-0-0-|-0-0-0-0-|-0-0-0-0-0-0--|2X
 * * * * * *   * * * * * * * *   * * * *   * * * * * *


(2:04-2:20)
|------------------------------------------------------|
|------------------------------------------------------|
|------------------------------------------------------|
|------------------------------------------------------|
|----------------5------------8---------7------------4-|4X
|0-0-0-0-0-0-0-0---0-0-0-0-0-----0-0-0-----0-0-0-0-0---|
 * * * * * * * *   * * * * *     * * *     * * * * *


(2:21-2:50)
|-------------------------|-------------|-------------|----------|
|-------------------------|-------------|-------------|----------|
|-------------------------|-------------|-------------|----------|
|-------------------------|-------------|-------------|----------|
|5-5-5-5-5-4-5-4-4-4-4-4-4|8-8-8-8-8-7-8|4-4-4-4-4-4-4|----------|4X
|-------------------------|-------------|-------------|7-7-7-7-7-|
 T T T T T T T T T T T T T T T T T T T T T T T T T T T T T T T T


|---------------------|
|---------------------|
|---------------------|
|7-7-7----------------|
|------8-8-8----------|
|-------------0-0-0-0-|
 T T T T T T  * * * *


(2:51-3:09)
|-----------------------------------------|
|-----------------------------------------|
|-----------------------------------------|
|-----------------------------------------|
|-----5---8------5---7--------------------|
|0-0----0----0-0---0-----0-0-0-0-0-0------|
 * *    *    * *   *     * * * * * *

|--------------------------------------|
|--------------------------------------|
|--------------------------------------|
|--------------------------------------|
|-----5---8-----5---7----5h8p5--4h7p4--|
|0-0----0---0-0---0---0----------------|
 * *    *   * *   *   *


|-----------------------------------------|-------------------------|
|-----------------------------------------|-------------------------|
|-----------------------------------------|-------------------------|
|-----------------------------------------|-------------------------|
|-----5---8------5---7--------------------|---8-8-8----7-7-7--------|2X
|0-0----0----0-0---0-----0-0-0-0-0-0------|-8--------8--------8-8-8-|
 * *    *    * *   *     * * * * * *        * T T T  * T T T  T T T


(3:10-3:27)
|-------------------------------------------------------------------------|
|-------------------------------------------------------------------------|
|-------------------------------------------------------------------------|
|-------------------------------------------------------------------------|
|0-0-----------0-0----------------------0-0-0-----------------------------|
|0-0--0-0-0-0--0-0--0-0-0-0-0-0-0-0-0-0-0-0-0-0-0-0-0--8h128h12--7h117h11-|
 * *           * *                      * * *


|--------------------------------------------------------------------|
|--------------------------------------------------------------------|
|--------------------------------------------------------------------|
|--------------------------------------------------------------------|
|0-0-----------0-0---------------------------5-5--7-7--8-8--10-10--7-|2X
|0-0--0-0-0-0--0-0--0-0-0-0-0-0-0-0-0-0--0-0-------------------------|
 * *           * *                       * *    T T  T T  T T  T  T


(3:28-3:46)
|---------------------------------------------------------------|
|---------------------------------------------------------------|
|---------------------------------------------------------------|
|7-7-7--3-3-3---------------------------------------------------|
|----------------8-8-8---8-8-8-------------8-8-8-8---8-12-10-8--|
|--------------0-------0-------7h117h11--0---------0------------|
 T T T  T T T  * T T T * T T T           * T T T T * T T  T  T

|--------------------------------------------------------------|
|--------------------------------------------------------------|
|--------------------------------------------------------------|
|--------------------------------------------------------------|
|--10-10-10-10----10-10-10-10----12-12-12-12----12-12-12-------|
|8--------------8-------------10-------------10-----------12-7-|2X
 * T  T  T  T   * T  T  T  T  *  T  T  T  T  *  T  T  T   T  T

(3:47-End)
|------------|-----------------|---------|--------------|
|------------|-----------------|---------|--------------|
|------------|-----------------|---------|--------------|
|------------|-----------------|---------|--------------|
|0-0-0-0-0-0-|-0-0-0-0-0-0-0-0-|-0-0-0-0-|-0-0-0-0-0-0--|
|0-0-0-0-0-0-|-0-0-0-0-0-0-0-0-|-0-0-0-0-|-0-0-0-0-0-0--|
 * * * * * *   * * * * * * * *   * * * *   * * * * * *

            
            
Suggest correction
Creating personal tab
Creating personal tab
You can edit any tab online and save it as your Personal.

You can edit, replace or remove any tab part or add personal notes – all changes will be seen only by you.

Personal tabs can be accessed anytime from any device, even offline.
Learn more »
Give kudos to tab author, rate the tab!
1 2 3 4 5
comments
print report bad tab
guest
You may want to rate the tab now too:
select rating
Wanna post a correction for this tab? Suggest correction