Oops, an error
Loading. Please wait.

Is It Love Youre After bass

19 views 1 this week
no commentswrite comment
1 2 3 4 5
3 more votes to show rating
add to favorites
×
Save as Personal and add changes to this tab that will be seen only by you. Learn more ›
×
You can save this tab as Personal to edit and correct it or add notes. All changes will be seen only by you. Learn more »
launch autoscroll
font size
0
reset
guitar tuner
edit
Autoscroll
slow
fast
+/-
esc
set tempo
stop
Is It Love You’re After
Single release by U.S. disco band Rose Royce in 1979. Reached #13 UK charts
Tab by bass50611. Good Seventies disco song.  Bass line as I see it, not 
Exact to original.

Intro:
G|-----------------|----------------------------------------------------|
D|--KEYBOARD START-|----------------------------------------------------|
A|--WITH KICK DRUM-|-5-5-5--5-5-5-------5-5-5--5-5-5-------5-5-5--5-5-5-|
E|-----------------|----------------------------------------------------|

G|--------------------------------------------------------------|
D|--------------------------------------------------------------|
A|-5-5-5--5-5-5-------5--5-------5--5-------5--5----------------|
E|-------------------------5--5-------5--5-------5--5---3-----5-|

G|-------------------------------------------|
D|-------------------------------------------|
A|-5--5-------5--5-------5--5----------------|
E|------5--5-------5--5-------5--5---3-----5-|

Verse 1:
G|------------------------------------------------------------------|
D|------------------------------------------------------------------|
A|-6---6---8---8---5---5---5---5----6---6---8---8---5---5---5---5---|
E|---6---6---8---8---5---5---5---5----6---6---8---8---5---5---5---5-|

G|-------------------------------------------------------------5/7-|
D|-----------------------------------------------------------------|
A|-6---6---8---8---5---5---5---5----6---6---8---8---5---5---5------|
E|---6---6---8---8---5---5---5---5----6---6---8---8---5------------|

Chorus:                            (Play This Bit x2)
G|-------------------------------------------|
D|-------------------------------------------|
A|-5--5-------5--5-------5--5----------------|
E|------5--5-------5--5-------5--5---3-----5-|

Verse 2:
G|------------------------------------------------------------------|
D|------------------------------------------------------------------|
A|-6---6---8---8---5---5---5---5----6---6---8---8---5---5---5---5---|
E|---6---6---8---8---5---5---5---5----6---6---8---8---5---5---5---5-|

G|-------------------------------------------------------------5/7-|
D|-----------------------------------------------------------------|
A|-6---6---8---8---5---5---5---5----6---6---8---8---5---5---5------|
E|---6---6---8---8---5---5---5---5----6---6---8---8---5------------|

Chorus:                            (Play This Bit x2)
G|-------------------------------------------|
D|-------------------------------------------|
A|-5--5-------5--5-------5--5----------------|
E|------5--5-------5--5-------5--5---3-----5-|

Bridge 1:
G|-----------------------------------------------------------------------|
D|-----------------------------------------------------------------------|
A|-5-5-5--5-5-5-------5-5-5--5-5-5-------5-5-5--5-5-5-------5-5-5--5-5-5-|
E|-----------------------------------------------------------------------|

G|---------------------------------|
D|---------------------------------|
A|-5-5-5--5-5-5-------5-5-5--5-5-5-|
E|---------------------------------|

Chorus:                            (Play This Bit x2)
G|-------------------------------------------|
D|-------------------------------------------|
A|-5--5-------5--5-------5--5----------------|
E|------5--5-------5--5-------5--5---3-----5-|

Bridge 2:
G|--------------------------------------------------------------|
D|--------------------------------------------------------------|
A|--------------------------2--2--2--2--2--2--2--2--------------|
E|-3--3--3--3---2--2--2--2---------------------------3--3--3--3-|

G|------------------------------------------------------------------|
D|------------------------------------------------------------------|
A|------------------------------------------------------------------|
E|-2--2--2--2/6----6----6----6----6--6----6----6----6----6----6--6/-|

Outro:                            (Repeat Outro To Fade/End)
G|-------------------------------------------|
D|-------------------------------------------|
A|-5--5-------5--5-------5--5----------------|
E|------5--5-------5--5-------5--5---3-----5-|



            
            
Suggest correction
Creating personal tab
Creating personal tab
You can edit any tab online and save it as your Personal.

You can edit, replace or remove any tab part or add personal notes – all changes will be seen only by you.

Personal tabs can be accessed anytime from any device, even offline.
Learn more »
Give kudos to tab author, rate the tab!
1 2 3 4 5
comments
print report bad tab
guest
You may want to rate the tab now too:
select rating
Wanna post a correction for this tab? Suggest correction