Oops, an error
Loading. Please wait.

Alice In Murderland Bass Tab

7 views 1 this week
no commentswrite comment
1 2 3 4 5
3 more votes to show rating
add to favorites
launch autoscroll
font size
0
reset
guitar tuner
Autoscroll
slow
fast
+/-
esc
set tempo
stop
Help us to improve Ultimate-Guitar.com Take our survey!
×
Author
Difficulty
novice
                             ROSEMARY'S BABIES - ALICE IN MURDERLAND

Tabbed by: Rottney (reconssuck)
E-mail: reconssuck@hotmail.de

Artist: Rosemary's Babies
Song: Alice In Murderland
Album: Talking To The Dead Compilation (2004)




[Verse] x2

G|-----------------|-----------------|-----------------|-----------------|
D|-----------------|-----------------|-----------------|-----------------|
A|-7-7-7-7-7-7-7-7-|-3-3-3-3-3-3-3-3-|-0-0-0-0-0-0-0-0-|-7-7-7-7-7-7-7-7-|
E|-----------------|-----------------|-----------------|-----------------|

[Chorus] x4

G|---------|---------|
D|---------|---------|
A|---------|---------|
E|-3-3-3-3-|-5-5-5-5-|

[Verse] 

G|-----------------|-----------------|-----------------|-----------------|
D|-----------------|-----------------|-----------------|-----------------|
A|-7-7-7-7-7-7-7-7-|-3-3-3-3-3-3-3-3-|-0-0-0-0-0-0-0-0-|-7-7-7-7-7-7-7-7-|
E|-----------------|-----------------|-----------------|-----------------|

[Bridge] x4

G|---------|---------|-----------------|
D|---------|---------|-----------------|
A|-3-3-3-3-|---------|-----------------|
E|---------|-4-4-4-4-|-6-6-6-6-6-6-6-6-|


[Verse] x2

G|-----------------|-----------------|-----------------|-----------------|
D|-----------------|-----------------|-----------------|-----------------|
A|-7-7-7-7-7-7-7-7-|-3-3-3-3-3-3-3-3-|-0-0-0-0-0-0-0-0-|-7-7-7-7-7-7-7-7-|
E|-----------------|-----------------|-----------------|-----------------|

[Chorus] x3

G|---------|---------|
D|---------|---------|
A|---------|---------|
E|-3-3-3-3-|-5-5-5-5-|

[Chorus Variation]

G|---------|---------|---------|---------|-----------------|
D|---------|---------|---------|---------|-----------------|
A|---------|-5-5-5-5-|-3-3-3-3-|---------|-----------------|
E|-3-3-3-3-|---------|---------|-4-4-4-4-|-6-6-6-6-6-6-6-6-|

[Bridge] x3

G|---------|---------|-----------------|
D|---------|---------|-----------------|
A|-3-3-3-3-|---------|-----------------|
E|---------|-4-4-4-4-|-6-6-6-6-6-6-6-6-|




That's all
Enjoy and Rate
Suggest correction
Give kudos to tab author, rate the tab!
1 2 3 4 5
comments
print report bad tab
guest
You may want to rate the tab now too:
select rating
Wanna post a correction for this tab? Suggest correction