Oops, an error
Loading. Please wait.

Becky Bondage Tab

10 views 1 this week
no commentswrite comment
1 2 3 4 5
3 more votes to show rating
add to favorites
launch autoscroll
font size
0
reset
how to read this tab
guitar tuner
Autoscroll
slow
fast
+/-
esc
set tempo
stop
Help us to improve Ultimate-Guitar.com Take our survey!
×
Author
Difficulty
novice
                             ROSEMARY'S BABIES - BECKY BONDAGE

Tabbed by: Rottney (reconssuck)
E-mail: reconssuck@hotmail.de

Artist: Rosemary's Babies
Song: Becky Bondage (yes this song is about the singer of vice squad)
Album: Talking To The Dead Compilation (2004)



[Verse]

e|---------------|---------------|---------------|---------------|
B|---------------|---------------|---------------|---------------|
G|---------------|---------------|---------------|---------------|
D|---------------|-7-7-7-7-7-7-7-|---------------|-7-7-7-7-7-7-7-|
A|-5-5-5-5-5-5-5-|-5-5-5-5-5-5-5-|-5-5-5-5-5-5-5-|-5-5-5-5-5-5-5-|
E|-3-3-3-3-3-3-3-|---------------|-3-3-3-3-3-3-3-|---------------|


e|---------------|---------------|---------------|---------------|
B|---------------|---------------|---------------|---------------|
G|---------------|---------------|---------------|---------------|
D|---------------|-9-9-9-9-9-9-9-|---------------|-9-9-9-9-9-9-9-|
A|-7-7-7-7-7-7-7-|-7-7-7-7-7-7-7-|-7-7-7-7-7-7-7-|-7-7-7-7-7-7-7-|
E|-5-5-5-5-5-5-5-|---------------|-5-5-5-5-5-5-5-|---------------|


[Chorus]

e|-----------------|-----------------|-----------------|--------|
B|-----------------|-----------------|-----------------|--------|
G|-----------------|-----------------|-----------------|--------|
D|-7-7-7-7-7-7-7-7-|-7-7-7-7-7-7-7-7-|-7-7-7-7-7-7-7-7-|-7------|
A|-5-5-5-5-5-5-5-5-|-5-5-5-5-5-5-5-5-|-5-5-5-5-5-5-5-5-|-5------|
E|-----------------|-----------------|-----------------|--------|

[Verse]

e|---------------|---------------|---------------|---------------|
B|---------------|---------------|---------------|---------------|
G|---------------|---------------|---------------|---------------|
D|---------------|-7-7-7-7-7-7-7-|---------------|-7-7-7-7-7-7-7-|
A|-5-5-5-5-5-5-5-|-5-5-5-5-5-5-5-|-5-5-5-5-5-5-5-|-5-5-5-5-5-5-5-|
E|-3-3-3-3-3-3-3-|---------------|-3-3-3-3-3-3-3-|---------------|


e|---------------|---------------|---------------|---------------|
B|---------------|---------------|---------------|---------------|
G|---------------|---------------|---------------|---------------|
D|---------------|-9-9-9-9-9-9-9-|---------------|-9-9-9-9-9-9-9-|
A|-7-7-7-7-7-7-7-|-7-7-7-7-7-7-7-|-7-7-7-7-7-7-7-|-7-7-7-7-7-7-7-|
E|-5-5-5-5-5-5-5-|---------------|-5-5-5-5-5-5-5-|---------------|

[Chorus]

e|-----------------|-----------------|-----------------|--------|
B|-----------------|-----------------|-----------------|--------|
G|-----------------|-----------------|-----------------|--------|
D|-7-7-7-7-7-7-7-7-|-7-7-7-7-7-7-7-7-|-7-7-7-7-7-7-7-7-|-7------|
A|-5-5-5-5-5-5-5-5-|-5-5-5-5-5-5-5-5-|-5-5-5-5-5-5-5-5-|-5------|
E|-----------------|-----------------|-----------------|--------|


[Verse]

e|---------------|---------------|---------------|---------------|
B|---------------|---------------|---------------|---------------|
G|---------------|---------------|---------------|---------------|
D|---------------|-7-7-7-7-7-7-7-|---------------|-7-7-7-7-7-7-7-|
A|-5-5-5-5-5-5-5-|-5-5-5-5-5-5-5-|-5-5-5-5-5-5-5-|-5-5-5-5-5-5-5-|
E|-3-3-3-3-3-3-3-|---------------|-3-3-3-3-3-3-3-|---------------|


e|---------------|---------------|---------------|---------------|
B|---------------|---------------|---------------|---------------|
G|---------------|---------------|---------------|---------------|
D|---------------|-9-9-9-9-9-9-9-|---------------|-9-9-9-9-9-9-9-|
A|-7-7-7-7-7-7-7-|-7-7-7-7-7-7-7-|-7-7-7-7-7-7-7-|-7-7-7-7-7-7-7-|
E|-5-5-5-5-5-5-5-|---------------|-5-5-5-5-5-5-5-|---------------|


[Last Chorus]

e|-----------------|-----------------|-----------------|--------|
B|-----------------|-----------------|-----------------|--------|
G|-----------------|-----------------|-----------------|--------|
D|-7-7-7-7-7-7-7-7-|-7-7-7-7-7-7-7-7-|-7-7-7-7-7-7-7-7-|-7--7---|
A|-5-5-5-5-5-5-5-5-|-5-5-5-5-5-5-5-5-|-5-5-5-5-5-5-5-5-|-5--5---|
E|-----------------|-----------------|-----------------|--------| 
Suggest correction
Give kudos to tab author, rate the tab!
1 2 3 4 5
comments
print report bad tab
guest
You may want to rate the tab now too:
select rating
Wanna post a correction for this tab? Suggest correction