Oops, an error
Loading. Please wait.

Blood Lust Tab

4 views 1 this week
no commentswrite comment
1 2 3 4 5
3 more votes to show rating
add to favorites
launch autoscroll
font size
0
reset
how to read this tab
guitar tuner
Autoscroll
slow
fast
+/-
esc
set tempo
stop
Help us to improve Ultimate-Guitar.com Take our survey!
×
Author
Difficulty
novice
Artist: Rosemary's Babies
Song: Blood lust
Tabbed by: Rottney (reconssuck)
E-mail: reconssuck@hotmail.de

Tuning: Standard (EADGBe)

[Intro]
e|---------------|---------------|-----------------------------|
B|---------------|---------------|-----------------------------|
G|---------------|---------------|-----------------------------|
D|---------------|---------------|-----------------------------|
A|-6-6-6-6-6-6-6-|-3-3-3-3-3-3-3-|-4-4-4-4-4-4-4-4-4-4-4-4-4-4-|
E|-4-4-4-4-4-4-4-|-1-1-1-1-1-1-1-|-2-2-2-2-2-2-2-2-2-2-2-2-2-2-|

[Verse] x4
e|---------------|---------------|---------------|---------------|
B|---------------|---------------|---------------|---------------|
G|---------------|---------------|---------------|---------------|
D|---------------|-6-6-6-6-6-6-6-|-8-8-8-8-8-8-8-|-6-6-6-6-6-6-6-|
A|-4-4-4-4-4-4-4-|-4-4-4-4-4-4-4-|-6-6-6-6-6-6-6-|-4-4-4-4-4-4-4-|
E|-2-2-2-2-2-2-2-|---------------|---------------|---------------|

e|---------------|---------------|------------------|
B|---------------|---------------|------------------|
G|---------------|---------------|------------------|
D|---------------|---------------|------------------|
A|-6-6-6-6-6-6-6-|-3-3-3-3-3-3-3-|-4-4-4-4-4-4-4-4--|
E|-4-4-4-4-4-4-4-|-1-1-1-1-1-1-1-|-2-2-2-2-2-2-2-2--|
Suggest correction
Give kudos to tab author, rate the tab!
1 2 3 4 5
comments
print report bad tab
guest
You may want to rate the tab now too:
select rating
Wanna post a correction for this tab? Suggest correction