Oops, an error
Loading. Please wait.

Dead Zone Bass Tab

1 view 1 this week
no commentswrite comment
1 2 3 4 5
3 more votes to show rating
add to favorites
launch autoscroll
font size
0
reset
guitar tuner
Autoscroll
slow
fast
+/-
esc
set tempo
stop
Help us to improve Ultimate-Guitar.com Take our survey!
×
Author
Difficulty
novice
                             ROSEMARY'S BABIES - DEAD ZONE

Tabbed by: Rottney (reconssuck)
E-mail: reconssuck@hotmail.de

Artist: Rosemary's Babies
Song: Dead Zone
Album: Talking To The Dead Compilation (2004)




[Main Riff] x3 (bass already starts while guitar plays intro)

G|-----------------|-----------------|-----------------|---------|---------|
D|-----------------|-----------------|-----------------|---------|---------|
A|-----------------|-----------------|-----------------|---------|---------|
E|-5-5-5-5-5-5-5-5-|-3-3-3-3-3-3-3-3-|-5-5-5-5-5-5-5-5-|-7-7-7-7-|-9-9-9-9-|


[Chorus]


G|-----------------|-------------------------|-----------------|-----------------|
D|-----------------|-------------------------|-----------------|-----------------|
A|-9-9-9-9-9-9-9-9-|-------------------------|-----------------|-5-5-5-5-5-5-5-5-|
E|-----------------|-10-10-10-10-10-10-10-10-|-2-2-2-2-2-2-2-2-|-----------------|


[Main Riff] x2

G|-----------------|-----------------|-----------------|---------|---------|
D|-----------------|-----------------|-----------------|---------|---------|
A|-----------------|-----------------|-----------------|---------|---------|
E|-5-5-5-5-5-5-5-5-|-3-3-3-3-3-3-3-3-|-5-5-5-5-5-5-5-5-|-7-7-7-7-|-9-9-9-9-|

[Chorus]


G|-----------------|-------------------------|-----------------|-----------------|
D|-----------------|-------------------------|-----------------|-----------------|
A|-9-9-9-9-9-9-9-9-|-------------------------|-----------------|-5-5-5-5-5-5-5-5-|
E|-----------------|-10-10-10-10-10-10-10-10-|-2-2-2-2-2-2-2-2-|-----------------|



[Main Riff] x2

G|-----------------|-----------------|-----------------|---------|---------|
D|-----------------|-----------------|-----------------|---------|---------|
A|-----------------|-----------------|-----------------|---------|---------|
E|-5-5-5-5-5-5-5-5-|-3-3-3-3-3-3-3-3-|-5-5-5-5-5-5-5-5-|-7-7-7-7-|-9-9-9-9-|

[End]

G|--------|
D|--------|
A|--------|
E|-5------|




That's all
Enjoy and Rate
Suggest correction
Give kudos to tab author, rate the tab!
1 2 3 4 5
comments
print report bad tab
guest
You may want to rate the tab now too:
select rating
Wanna post a correction for this tab? Suggest correction