Oops, an error
Loading. Please wait.

Fake Babies Bass Tab

4 views 1 this week
no commentswrite comment
1 2 3 4 5
3 more votes to show rating
add to favorites
launch autoscroll
font size
0
reset
guitar tuner
Autoscroll
slow
fast
+/-
esc
set tempo
stop
Help us to improve Ultimate-Guitar.com Take our survey!
×
Author
Difficulty
novice
                             ROSEMARY'S BABIES - FAKE BABIES

Tabbed by: Rottney (reconssuck)
E-mail: reconssuck@hotmail.de

Artist: Rosemary's Babies
Song: Fake Babies
Album: Talking To The Dead Compilation (2004)





[Intro]

G|-----------|
D|-----------|
A|-3--2------|
E|-----------|

[Verse] x2

G|-----------------|---------------|-------------|-------------|-------------|-------------|
D|-----------------|---------------|-------------|-------------|-------------|-------------|
A|-3-3-3-3-3-3-3-3-|-2-2-2-2-2-2-2-|-------------|-------------|-------------|-------------|
E|-----------------|---------------|-5-5-5-5-3-3-|-5-5-5-5-3-3-|-5-5-5-5-3-3-|-5-5-5-5-3-3-|


[Verse Continuation] x4

G|-----------------|---------------|
D|-----------------|---------------|
A|-2-2-2-2-2-2-2-2-|---------------|
E|-----------------|-3-3-3-3-3-3-3-|

[Verse End]

G|-------------------------------|---------------------------|
D|-------------------------------|---------------------------|
A|-0-0-0-0-0-0-0-0-0-0-0-0-0-0-0-|-2-2-2-2-2-2-2-2-2-\12/----|
E|-------------------------------|---------------------------|


[Verse] x2

G|-----------------|---------------|-------------|-------------|-------------|-------------|
D|-----------------|---------------|-------------|-------------|-------------|-------------|
A|-3-3-3-3-3-3-3-3-|-2-2-2-2-2-2-2-|-------------|-------------|-------------|-------------|
E|-----------------|---------------|-5-5-5-5-3-3-|-5-5-5-5-3-3-|-5-5-5-5-3-3-|-5-5-5-5-3-3-|

[Verse Continuation] x4

G|-----------------|---------------|
D|-----------------|---------------|
A|-2-2-2-2-2-2-2-2-|---------------|
E|-----------------|-3-3-3-3-3-3-3-|


[Verse End]

G|-------------------------------|---------------------------|
D|-------------------------------|---------------------------|
A|-0-0-0-0-0-0-0-0-0-0-0-0-0-0-0-|-2-2-2-2-2-2-2-2-2-\12/----|
E|-------------------------------|---------------------------|

[Verse] 

G|-----------------|---------------|-------------|-------------|-------------|-------------|
D|-----------------|---------------|-------------|-------------|-------------|-------------|
A|-3-3-3-3-3-3-3-3-|-2-2-2-2-2-2-2-|-------------|-------------|-------------|-------------|
E|-----------------|---------------|-5-5-5-5-3-3-|-5-5-5-5-3-3-|-5-5-5-5-3-3-|-5-5-5-5-3-3-|


[End]

G|-----|
D|-----|
A|-----|
E|-7/--|


************************************
| /   Slide up
| \   Slide down
************************************
Suggest correction
Give kudos to tab author, rate the tab!
1 2 3 4 5
comments
print report bad tab
guest
You may want to rate the tab now too:
select rating
Wanna post a correction for this tab? Suggest correction