Oops, an error
Loading. Please wait.

Happy Song Bass Tab

4 views 1 this week
no commentswrite comment
1 2 3 4 5
3 more votes to show rating
add to favorites
launch autoscroll
font size
0
reset
guitar tuner
Autoscroll
slow
fast
+/-
esc
set tempo
stop
Help us to improve Ultimate-Guitar.com Take our survey!
×
Author
Difficulty
novice
                             ROSEMARY'S BABIES - HAPPY SONG

Tabbed by: Rottney (reconssuck)
E-mail: reconssuck@hotmail.de

Artist: Rosemary's Babies
Song: Happy Song
Album: Blood Lust EP



Tuning: Standard (EADG)



[Main Riff] x3

G|---------------|---------------|-----------------|--------------|
D|---------------|---------------|-----------------|--------------|
A|-5-5-5-5-5-5-5-|-5-5-5-5-5-5-5-|-7-7-7-7-7-7-7-7-|-7-7-7-7-6-6--|
E|---------------|---------------|-----------------|--------------|

[Main Riff End]

G|---------------|---------------|-------|
D|---------------|---------------|-------|
A|-5-5-5-5-5-5-5-|-5-5-5-5-5-5-5-|-3-----|
E|---------------|---------------|-------|


[Main Riff] x3

G|---------------|---------------|-----------------|--------------|
D|---------------|---------------|-----------------|--------------|
A|-5-5-5-5-5-5-5-|-5-5-5-5-5-5-5-|-7-7-7-7-7-7-7-7-|-7-7-7-7-6-6--|
E|---------------|---------------|-----------------|--------------|

[Main Riff End]

G|---------------|---------------|-------|
D|---------------|---------------|-------|
A|-5-5-5-5-5-5-5-|-5-5-5-5-5-5-5-|-3-----|
E|---------------|---------------|-------|

[Chorus] x4

G|----------------|
D|----------------|
A|----------------|
E|-6-6-6-6-5-4----|

[Main Riff] x3

G|---------------|---------------|-----------------|--------------|
D|---------------|---------------|-----------------|--------------|
A|-5-5-5-5-5-5-5-|-5-5-5-5-5-5-5-|-7-7-7-7-7-7-7-7-|-7-7-7-7-6-6--|
E|---------------|---------------|-----------------|--------------|


[Main Riff End]

G|---------------|---------------|-------|
D|---------------|---------------|-------|
A|-5-5-5-5-5-5-5-|-5-5-5-5-5-5-5-|-3-----|
E|---------------|---------------|-------|



[Chorus] x4

G|----------------|
D|----------------|
A|----------------|
E|-6-6-6-6-5-4----|


[Main Riff] x3

G|---------------|---------------|-----------------|--------------|
D|---------------|---------------|-----------------|--------------|
A|-5-5-5-5-5-5-5-|-5-5-5-5-5-5-5-|-7-7-7-7-7-7-7-7-|-7-7-7-7-6-6--|
E|---------------|---------------|-----------------|--------------|



[Main Riff End]

G|---------------|---------------|-------|
D|---------------|---------------|-------|
A|-5-5-5-5-5-5-5-|-5-5-5-5-5-5-5-|-3-----|
E|---------------|---------------|-------|

[Chorus] x4

G|----------------|
D|----------------|
A|----------------|
E|-6-6-6-6-5-4----|


[End]


G|-----|
D|-----|
A|-5---|
E|-----|


That's all
Enjoy and Rate
Suggest correction
Give kudos to tab author, rate the tab!
1 2 3 4 5
comments
print report bad tab
guest
You may want to rate the tab now too:
select rating
Wanna post a correction for this tab? Suggest correction