Oops, an error
Loading. Please wait.

Happy Song Tab

7 views 1 this week
no commentswrite comment
1 2 3 4 5
3 more votes to show rating
add to favorites
launch autoscroll
font size
0
reset
how to read this tab
guitar tuner
Autoscroll
slow
fast
+/-
esc
set tempo
stop
Help us to improve Ultimate-Guitar.com Take our survey!
×
Author
Difficulty
novice
Artist: Rosemary's Babies
Song: Happy Song
Tabbed by: Rottney (reconssuck)
E-mail: reconssuck@hotmail.de

[Main Riff]
e|-----------------|-------------|-----------------|-----------|
B|-----------------|-------------|-----------------|-----------|
G|-----------------|-------------|-----------------|-----------|
D|-7-7-7-7-7-7-7-7-|-7-7-7-7-7-7-|-9-9-9-9-9-9-9-9-|-9-9-8-8---|
A|-5-5-5-5-5-5-5-5-|-5-5-5-5-5-5-|-7-7-7-7-7-7-7-7-|-7-7-6-6---|
E|-----------------|-------------|-----------------|-----------|

[Main Riff End]
e|-----------------|-------------|-----|
B|-----------------|-------------|-----|
G|-----------------|-------------|-----|
D|-7-7-7-7-7-7-7-7-|-7-7-7-7-7-7-|-5---|
A|-5-5-5-5-5-5-5-5-|-5-5-5-5-5-5-|-3---|
E|-----------------|-------------|-----|

[Main Riff] x3
e|-----------------|-------------|-----------------|-----------|
B|-----------------|-------------|-----------------|-----------|
G|-----------------|-------------|-----------------|-----------|
D|-7-7-7-7-7-7-7-7-|-7-7-7-7-7-7-|-9-9-9-9-9-9-9-9-|-9-9-8-8---|
A|-5-5-5-5-5-5-5-5-|-5-5-5-5-5-5-|-7-7-7-7-7-7-7-7-|-7-7-6-6---|
E|-----------------|-------------|-----------------|-----------|

[Main Riff End]
e|-----------------|-------------|-----|
B|-----------------|-------------|-----|
G|-----------------|-------------|-----|
D|-7-7-7-7-7-7-7-7-|-7-7-7-7-7-7-|-5---|
A|-5-5-5-5-5-5-5-5-|-5-5-5-5-5-5-|-3---|
E|-----------------|-------------|-----|

[Chorus] x4
e|---------|-------|
B|---------|-------|
G|---------|-------|
D|---------|-------|
A|-8-8-8-8-|-7-5---|
E|-6-6-6-6-|-5-3---|

[Main Riff] x3
e|-----------------|-------------|-----------------|-----------|
B|-----------------|-------------|-----------------|-----------|
G|-----------------|-------------|-----------------|-----------|
D|-7-7-7-7-7-7-7-7-|-7-7-7-7-7-7-|-9-9-9-9-9-9-9-9-|-9-9-8-8---|
A|-5-5-5-5-5-5-5-5-|-5-5-5-5-5-5-|-7-7-7-7-7-7-7-7-|-7-7-6-6---|
E|-----------------|-------------|-----------------|-----------|

[Main Riff End]
e|-----------------|-------------|-----|
B|-----------------|-------------|-----|
G|-----------------|-------------|-----|
D|-7-7-7-7-7-7-7-7-|-7-7-7-7-7-7-|-5---|
A|-5-5-5-5-5-5-5-5-|-5-5-5-5-5-5-|-3---|
E|-----------------|-------------|-----|

[Chorus] x4
e|---------|-------|
B|---------|-------|
G|---------|-------|
D|---------|-------|
A|-8-8-8-8-|-7-5---|
E|-6-6-6-6-|-5-3---|

[Main Riff] x3
e|-----------------|-------------|-----------------|-----------|
B|-----------------|-------------|-----------------|-----------|
G|-----------------|-------------|-----------------|-----------|
D|-7-7-7-7-7-7-7-7-|-7-7-7-7-7-7-|-9-9-9-9-9-9-9-9-|-9-9-8-8---|
A|-5-5-5-5-5-5-5-5-|-5-5-5-5-5-5-|-7-7-7-7-7-7-7-7-|-7-7-6-6---|
E|-----------------|-------------|-----------------|-----------|

[Main Riff End]
e|-----------------|-------------|-----|
B|-----------------|-------------|-----|
G|-----------------|-------------|-----|
D|-7-7-7-7-7-7-7-7-|-7-7-7-7-7-7-|-5---|
A|-5-5-5-5-5-5-5-5-|-5-5-5-5-5-5-|-3---|
E|-----------------|-------------|-----|

[Chorus] x4
e|---------|-------|
B|---------|-------|
G|---------|-------|
D|---------|-------|
A|-8-8-8-8-|-7-5---|
E|-6-6-6-6-|-5-3---|

[Outro]
e|-------|
B|-------|
G|-------|
D|-7-----|
A|-5-----|
E|-------|
Suggest correction
Give kudos to tab author, rate the tab!
1 2 3 4 5
comments
print report bad tab
guest
You may want to rate the tab now too:
select rating
Wanna post a correction for this tab? Suggest correction