Oops, an error
Loading. Please wait.

I Vote Yes Bass Tab

1 view 1 this week
no commentswrite comment
1 2 3 4 5
3 more votes to show rating
add to favorites
launch autoscroll
font size
0
reset
guitar tuner
Autoscroll
slow
fast
+/-
esc
set tempo
stop
Help us to improve Ultimate-Guitar.com Take our survey!
×
Author
Difficulty
novice
                             ROSEMARY'S BABIES - I VOTE YES

Tabbed by: Rottney (reconssuck)
E-mail: reconssuck@hotmail.de

Artist: Rosemary's Babies
Song: I Vote Yes
Album: Talking To The Dead Compilation (2004)




[Verse] (starts after the drumsticks are hit)

G|---------------|-----------------|-----------------|-----------------|
D|---------------|-----------------|-----------------|-----------------|
A|---------------|-----------------|-----------------|-----------------|
E|-3-3-3-3-3-3-3-|-3-3-3-3-3-3-3-3-|-3-3-3-3-3-3-3-3-|-3-3-3-3-3-3-3-3-|

G|---------------|-----------------|-----------------|-----------------|
D|---------------|-----------------|-----------------|-----------------|
A|-3-3-3-3-3-3-3-|-3-3-3-3-3-3-3-3-|-3-3-3-3-3-3-3-3-|-3-3-3-3-3-3-3-3-|
E|---------------|-----------------|-----------------|-----------------|

[Verse Continuation]

G|---------------|-----------------|-----------------|-----------------|
D|---------------|-----------------|-----------------|-----------------|
A|---------------|-----------------|-----------------|-----------------|
E|-3-3-3-3-3-3-3-|-3-3-3-3-3-3-3-3-|-3-3-3-3-3-3-3-3-|-3-3-3-3-3-3-3-3-|

[Fill] x2

G|---------------|-----------|-----------------------------|
D|---------------|-----------|-----------------------------|
A|---------------|-----------|-----------------------------|
E|-6-6-6-6-6-6-6-|-5-5-4-4-4-|-3-3-3-3-3-3-3-3-3-3-3-3-3-3-|


[Chorus]

G|---------------|----------------|---------------|---------------|
D|---------------|----------------|---------------|---------------|
A|---------------|----------------|---------------|---------------|
E|-0-0-0-0-0-0-0-|-0-0-0-0-0-0-0--|-1-1-1-1-1-1-1-|-1-1-1-1-1-1-1-|

G|---------------|----------------|---------------|---------------|
D|---------------|----------------|---------------|---------------|
A|---------------|----------------|---------------|---------------|
E|-4-4-4-4-4-4-4-|-4-4-4-4-4-4-4--|-6-6-6-6-6-6-6-|-6-6-6-6-6-6-6-|

[Chorus End]

G|---------------|----------------|---------------|---------------|
D|---------------|----------------|---------------|---------------|
A|---------------|----------------|---------------|---------------|
E|-0-0-0-0-0-0-0-|-0-0-0-0-0-0-0--|-1-1-1-1-1-1-1-|-1-1-1-1-1-1-1-|

G|---------------|----------------|---------------|---------------|
D|---------------|----------------|---------------|---------------|
A|---------------|----------------|---------------|---------------|
E|-4-4-4-4-4-4-4-|-4-4-4-4-4-4-4--|-6-6-6-6-6-6-6-|-8-8-8-8-8-8-8-|


[Verse]

G|---------------|-----------------|-----------------|-----------------|
D|---------------|-----------------|-----------------|-----------------|
A|---------------|-----------------|-----------------|-----------------|
E|-3-3-3-3-3-3-3-|-3-3-3-3-3-3-3-3-|-3-3-3-3-3-3-3-3-|-3-3-3-3-3-3-3-3-|

G|---------------|-----------------|-----------------|-----------------|
D|---------------|-----------------|-----------------|-----------------|
A|-3-3-3-3-3-3-3-|-3-3-3-3-3-3-3-3-|-3-3-3-3-3-3-3-3-|-3-3-3-3-3-3-3-3-|
E|---------------|-----------------|-----------------|-----------------|


[Verse Continuation]

G|---------------|-----------------|-----------------|-----------------|
D|---------------|-----------------|-----------------|-----------------|
A|---------------|-----------------|-----------------|-----------------|
E|-3-3-3-3-3-3-3-|-3-3-3-3-3-3-3-3-|-3-3-3-3-3-3-3-3-|-3-3-3-3-3-3-3-3-|

[Fill] x2

G|---------------|-----------|-----------------------------|
D|---------------|-----------|-----------------------------|
A|---------------|-----------|-----------------------------|
E|-6-6-6-6-6-6-6-|-5-5-4-4-4-|-3-3-3-3-3-3-3-3-3-3-3-3-3-3-|

[Chorus]

G|---------------|----------------|---------------|---------------|
D|---------------|----------------|---------------|---------------|
A|---------------|----------------|---------------|---------------|
E|-0-0-0-0-0-0-0-|-0-0-0-0-0-0-0--|-1-1-1-1-1-1-1-|-1-1-1-1-1-1-1-|

G|---------------|----------------|---------------|---------------|
D|---------------|----------------|---------------|---------------|
A|---------------|----------------|---------------|---------------|
E|-4-4-4-4-4-4-4-|-4-4-4-4-4-4-4--|-6-6-6-6-6-6-6-|-6-6-6-6-6-6-6-|

[Chorus End]

G|---------------|----------------|---------------|---------------|
D|---------------|----------------|---------------|---------------|
A|---------------|----------------|---------------|---------------|
E|-0-0-0-0-0-0-0-|-0-0-0-0-0-0-0--|-1-1-1-1-1-1-1-|-1-1-1-1-1-1-1-|

G|---------------|----------------|---------------|---------------|
D|---------------|----------------|---------------|---------------|
A|---------------|----------------|---------------|---------------|
E|-4-4-4-4-4-4-4-|-4-4-4-4-4-4-4--|-6-6-6-6-6-6-6-|-8-8-8-8-8-8-8-|


[Fill] x3

G|---------------|-----------|-----------------------------|
D|---------------|-----------|-----------------------------|
A|---------------|-----------|-----------------------------|
E|-6-6-6-6-6-6-6-|-5-5-4-4-4-|-3-3-3-3-3-3-3-3-3-3-3-3-3-3-|

[End]


G|---------------|-----------|--------|
D|---------------|-----------|--------|
A|---------------|-----------|--------|
E|-6-6-6-6-6-6-6-|-5-5-4-4-4-|-3------|



That's all
Enjoy and Rate
Suggest correction
Give kudos to tab author, rate the tab!
1 2 3 4 5
comments
print report bad tab
guest
You may want to rate the tab now too:
select rating
Wanna post a correction for this tab? Suggest correction