Oops, an error
Loading. Please wait.

Im Gonna Be Sick Bass

10 views 1 this week
no commentswrite comment
1 2 3 4 5
3 more votes to show rating
add to favorites
launch autoscroll
font size
0
reset
guitar tuner
×
Best way to learn
"Im Gonna Be Sick"
Autoscroll
slow
fast
+/-
esc
set tempo
stop
Author
Difficulty
novice
                             ROSEMARY'S BABIES - I'M GONNA BE SICK

Tabbed by: Rottney (reconssuck)
E-mail: reconssuck@hotmail.de

Artist: Rosemary's Babies
Song: I'm Gonna Be Sick
Album: Blood Lust EP


[Intro]

G|-------------------|---------------|-------|
D|-------------------|---------------|-------|
A|-5-5-5-5-5-5-5-5-5-|-0-0-0-0-0-0-0-|-4-5-7-|
E|-------------------|---------------|-------|

G|-------------|-------------|-------|
D|-------------|-------------|-------|
A|-------------|-------------|-5-----|
E|-0-0-0-0-0-0-|-3-3-3-3-3-3-|-------|


[Verse] x2

G|---------|---------|---------|---------|---------|---------|---------|------------|
D|---------|---------|---------|---------|---------|---------|---------|------------|
A|---------|---------|---------|---------|---------|---------|---------|------------|
E|-5-5-5-5-|-7-7-7-7-|-5-5-5-5-|-7-7-7-7-|-5-5-5-5-|-7-7-7-7-|-5-5-5-5-|-7-7-7-7----|



[Verse Variation] x2

G|-------------------------------|-------------------------------|---------------|--------------------------|
D|-------------------------------|-------------------------------|---------------|--------------------------|
A|-5-5-5-5-5-5-5-5-5-5-5-5-5-5-5-|-0-0-0-0-0-0-0-0-0-0-0-0-0-0-0-|---------------|----------------5-5-5-5-5-|
E|-------------------------------|-------------------------------|-0-0-0-0-0-0-0-|-3-3-3-3-3-3-3------------|


[Verse] x2

G|---------|---------|---------|---------|---------|---------|---------|------------|
D|---------|---------|---------|---------|---------|---------|---------|------------|
A|---------|---------|---------|---------|---------|---------|---------|------------|
E|-5-5-5-5-|-7-7-7-7-|-5-5-5-5-|-7-7-7-7-|-5-5-5-5-|-7-7-7-7-|-5-5-5-5-|-7-7-7-7----|


[Verse Variation] x2

G|-------------------------------|-------------------------------|---------------|--------------------------|
D|-------------------------------|-------------------------------|---------------|--------------------------|
A|-5-5-5-5-5-5-5-5-5-5-5-5-5-5-5-|-0-0-0-0-0-0-0-0-0-0-0-0-0-0-0-|---------------|----------------5-5-5-5-5-|
E|-------------------------------|-------------------------------|-0-0-0-0-0-0-0-|-3-3-3-3-3-3-3------------|


[Verse] x2

G|---------|---------|---------|---------|---------|---------|---------|------------|
D|---------|---------|---------|---------|---------|---------|---------|------------|
A|---------|---------|---------|---------|---------|---------|---------|------------|
E|-5-5-5-5-|-7-7-7-7-|-5-5-5-5-|-7-7-7-7-|-5-5-5-5-|-7-7-7-7-|-5-5-5-5-|-7-7-7-7----|




That's all
Enjoy and Rate
Suggest correction
Give kudos to tab author, rate the tab!
1 2 3 4 5
comments
print report bad tab
guest
You may want to rate the tab now too:
select rating
Wanna post a correction for this tab? Suggest correction