Oops, an error
Loading. Please wait.

Im Gonna Be Sick Tab

4 views 1 this week
no commentswrite comment
1 2 3 4 5
3 more votes to show rating
add to favorites
launch autoscroll
font size
0
reset
how to read this tab
guitar tuner
Autoscroll
slow
fast
+/-
esc
set tempo
stop
Help us to improve Ultimate-Guitar.com Take our survey!
×
Author
Difficulty
novice
                             ROSEMARY'S BABIES - I'M GONNA BE SICK

Tabbed by: Rottney (reconssuck)
E-mail: reconssuck@hotmail.de

Artist: Rosemary's Babies
Song: I'm Gonna Be Sick
Album: Blood Lust EP

[Intro]

e|-------------------------|-------------|-------------|-------------|---------------|
B|-------------------------|-------------|-------------|-------------|---------------|
G|-------------------------|-------------|-------------|-------------|---------------|
D|-7-7-7-7-7-7-7-7-7-7-7-7-|-2-2-2-2-2-2-|-------------|-------------|-7-7-7-7-7-7-7-|
A|-5-5-5-5-5-5-5-5-5-5-5-5-|-0-0-0-0-0-0-|-2-2-2-2-2-2-|-5-5-5-5-5-5-|-5-5-5-5-5-5-5-|
E|-------------------------|-------------|-0-0-0-0-0-0-|-3-3-3-3-3-3-|---------------|
                            (a 2nd guitar pickscrapes here)

[Verse] x8

e|---------|---------|
B|---------|---------|
G|---------|---------|
D|---------|---------|
A|-7-7-7-7-|-9-9-9-9-|
E|-5-5-5-5-|-7-7-7-7-|


[Verse Variation] x2

e|-------------------------------|----------------------------------|
B|-------------------------------|----------------------------------|
G|-------------------------------|----------------------------------|
D|-7-7-7-7-7-7-7-7-7-7-7-7-7-7-7-|----------------------------------|
A|-5-5-5-5-5-5-5-5-5-5-5-5-5-5-5-|-7-7-7-7-7-7-7-7-7-7-7-7-7-7-7-7--|
E|-------------------------------|-5-5-5-5-5-5-5-5-5-5-5-5-5-5-5-5--|

e|-----------------|-----------------|------------------------------|
B|-----------------|-----------------|------------------------------|
G|-----------------|-----------------|------------------------------|
D|-----------------|-----------------|-7-7-7-7-7-7-7-7-7-7-7-7-7----|
A|-2-2-2-2-2-2-2-2-|-5-5-5-5-5-5-5-5-|-5-5-5-5-5-5-5-5-5-5-5-5-5----|
E|-0-0-0-0-0-0-0-0-|-3-3-3-3-3-3-3-3-|------------------------------|


[Verse] x8

e|---------|---------|
B|---------|---------|
G|---------|---------|
D|---------|---------|
A|-7-7-7-7-|-9-9-9-9-|
E|-5-5-5-5-|-7-7-7-7-|


[Verse Variation] x2

e|-------------------------------|----------------------------------|
B|-------------------------------|----------------------------------|
G|-------------------------------|----------------------------------|
D|-7-7-7-7-7-7-7-7-7-7-7-7-7-7-7-|----------------------------------|
A|-5-5-5-5-5-5-5-5-5-5-5-5-5-5-5-|-7-7-7-7-7-7-7-7-7-7-7-7-7-7-7-7--|
E|-------------------------------|-5-5-5-5-5-5-5-5-5-5-5-5-5-5-5-5--|

e|-----------------|-----------------|------------------------------|
B|-----------------|-----------------|------------------------------|
G|-----------------|-----------------|------------------------------|
D|-----------------|-----------------|-7-7-7-7-7-7-7-7-7-7-7-7-7----|
A|-2-2-2-2-2-2-2-2-|-5-5-5-5-5-5-5-5-|-5-5-5-5-5-5-5-5-5-5-5-5-5----|
E|-0-0-0-0-0-0-0-0-|-3-3-3-3-3-3-3-3-|------------------------------|


[Verse] x8

e|---------|---------|
B|---------|---------|
G|---------|---------|
D|---------|---------|
A|-7-7-7-7-|-9-9-9-9-|
E|-5-5-5-5-|-7-7-7-7-|


[End]

e|------|
B|------|
G|------|
D|------|
A|-9----|
E|-7----|


That's all
Enjoy and Rate
Suggest correction
Give kudos to tab author, rate the tab!
1 2 3 4 5
comments
print report bad tab
guest
You may want to rate the tab now too:
select rating
Wanna post a correction for this tab? Suggest correction