Oops, an error
Loading. Please wait.

Inferior Bass Tab

4 views 1 this week
no commentswrite comment
1 2 3 4 5
3 more votes to show rating
add to favorites
launch autoscroll
font size
0
reset
guitar tuner
Autoscroll
slow
fast
+/-
esc
set tempo
stop
Help us to improve Ultimate-Guitar.com Take our survey!
×
Author
Difficulty
novice
ROSEMARY'S BABIES - INFERIOR

Tabbed by: Rottney (reconssuck)
E-mail: reconssuck@hotmail.de

Artist: Rosemary's Babies
Song: Inferior
Album: Blood Lust EP


[Main Riff] 

G|--------------------|--------------------|
D|---0--0--1--1--3--3-|--------------------|
A|-1------------------|---0--0--1--1--3--3-|
E|--------------------|-1------------------|(x3)


[Main Riff Variation]

G|--------------------|---------------------|
D|---0--0--1--1--3--3-|----5--5--6--6--8--8-|
A|-1------------------|-6-------------------|
E|--------------------|---------------------|


[Main Riff] 

G|--------------------|--------------------|
D|---0--0--1--1--3--3-|--------------------|
A|-1------------------|---0--0--1--1--3--3-|
E|--------------------|-1------------------|(x3)


[Main Riff End]

G|--------------------|---------------------|
D|---0--0--1--1--3--3-|---------------------|
A|-1------------------|-6-------------------|
E|--------------------|---------------------|


[Outro] 

G|---------|---------|
D|---------|---------|
A|---------|---------|
E|-5-5-5-5-|-3-3-3-3-|(x8)


[End]

G|------|
D|------|
A|------|
E|-5----|



That's all
Enjoy and Rate
Suggest correction
Give kudos to tab author, rate the tab!
1 2 3 4 5
comments
print report bad tab
guest
You may want to rate the tab now too:
select rating
Wanna post a correction for this tab? Suggest correction