Oops, an error
Loading. Please wait.

Lets Molest Bass Tab

10 views 1 this week
no commentswrite comment
1 2 3 4 5
3 more votes to show rating
add to favorites
launch autoscroll
font size
0
reset
guitar tuner
Autoscroll
slow
fast
+/-
esc
set tempo
stop
Help us to improve Ultimate-Guitar.com Take our survey!
×
Author
Difficulty
novice
                             ROSEMARY'S BABIES - LET'S MOLEST 

Tabbed by: Rottney (reconssuck)
E-mail: reconssuck@hotmail.de

Artist: Rosemary's Babies
Song: Let's Molest (On the Blood Lust EP this track is listed as "Let's Molest 10 Year Olds")
Album: Talking To The Dead Compilation (2004)




[Intro]

G|-----------------|-----------------|---------|---------|---------|---------|
D|-----------------|-----------------|---------|---------|---------|---------|
A|-----------------|-----------------|---------|---------|---------|---------|
E|-0-0-0-0-0-0-0-0-|-1-1-1-1-1-1-1-1-|-2-2-2-2-|-3-3-3-3-|-4-4-4-4-|-5/------|


[Verse] x2

G|-----------------|---------------|-----------------|---------------|
D|-----------------|---------------|-----------------|---------------|
A|-----------------|---------------|-----------------|---------------|
E|-7-7-7-7-7-7-7-7-|-7-7-7-7-7-7-7-|-5-5-5-5-5-5-5-5-|-5-5-5-5-5-5-5-|

G|---------------|---------------|---------------|-----------|
D|---------------|---------------|---------------|-----------|
A|---------------|---------------|---------------|-----------|
E|-3-3-3-3-3-3-3-|-5-5-5-5-5-5-5-|-7-7-7-7-7-7-7-|-7-7-7-7-7-|


[Chorus] x2

G|---------------|---------------|---------------|---------------|
D|---------------|---------------|---------------|---------------|
A|---------------|---------------|---------------|---------------|
E|-3-3-3-3-3-3-3-|-5-5-5-5-5-5-5-|-6-6-6-6-6-6-6-|-1-1-1-1-1-1-1-|


[Verse] x2

G|-----------------|---------------|-----------------|---------------|
D|-----------------|---------------|-----------------|---------------|
A|-----------------|---------------|-----------------|---------------|
E|-7-7-7-7-7-7-7-7-|-7-7-7-7-7-7-7-|-5-5-5-5-5-5-5-5-|-5-5-5-5-5-5-5-|

G|---------------|---------------|---------------|-----------|
D|---------------|---------------|---------------|-----------|
A|---------------|---------------|---------------|-----------|
E|-3-3-3-3-3-3-3-|-5-5-5-5-5-5-5-|-7-7-7-7-7-7-7-|-7-7-7-7-7-|


[Chorus] x2

G|---------------|---------------|---------------|---------------|
D|---------------|---------------|---------------|---------------|
A|---------------|---------------|---------------|---------------|
E|-3-3-3-3-3-3-3-|-5-5-5-5-5-5-5-|-6-6-6-6-6-6-6-|-1-1-1-1-1-1-1-|


[Verse] x2

G|-----------------|---------------|-----------------|---------------|
D|-----------------|---------------|-----------------|---------------|
A|-----------------|---------------|-----------------|---------------|
E|-7-7-7-7-7-7-7-7-|-7-7-7-7-7-7-7-|-5-5-5-5-5-5-5-5-|-5-5-5-5-5-5-5-|

G|---------------|---------------|---------------|-----------|
D|---------------|---------------|---------------|-----------|
A|---------------|---------------|---------------|-----------|
E|-3-3-3-3-3-3-3-|-5-5-5-5-5-5-5-|-7-7-7-7-7-7-7-|-7-7-7-7-7-|


[Chorus] x2

G|---------------|---------------|---------------|---------------|
D|---------------|---------------|---------------|---------------|
A|---------------|---------------|---------------|---------------|
E|-3-3-3-3-3-3-3-|-5-5-5-5-5-5-5-|-6-6-6-6-6-6-6-|-1-1-1-1-1-1-1-|



***********************************
| / Slide-up
***********************************



That's all
Enjoy and Rate
Suggest correction
Give kudos to tab author, rate the tab!
1 2 3 4 5
comments
print report bad tab
guest
You may want to rate the tab now too:
select rating
Wanna post a correction for this tab? Suggest correction